  0
SECTION
  2
HEADER
  9
$ACADVER
  1
AC1024
  9
$ACADMAINTVER
 70
     6
  9
$DWGCODEPAGE
  3
UNDEFINED
  9
$INSBASE
 10
0.0
 20
0.0
 30
0.0
  9
$EXTMIN
 10
1.000000000000000E+20
 20
1.000000000000000E+20
 30
1.000000000000000E+20
  9
$EXTMAX
 10
-1.000000000000000E+20
 20
-1.000000000000000E+20
 30
-1.000000000000000E+20
  9
$LIMMIN
 10
0.0
 20
0.0
  9
$LIMMAX
 10
12.0
 20
9.0
  9
$ORTHOMODE
 70
     0
  9
$REGENMODE
 70
     1
  9
$FILLMODE
 70
     1
  9
$QTEXTMODE
 70
     0
  9
$MIRRTEXT
 70
     1
  9
$LTSCALE
 40
1.0
  9
$ATTMODE
 70
     1
  9
$TEXTSIZE
 40
0.2
  9
$TRACEWID
 40
0.05
  9
$TEXTSTYLE
  7
Standard
  9
$CLAYER
  8
0
  9
$CELTYPE
  6
ByLayer
  9
$CECOLOR
 62
   256
  9
$CELTSCALE
 40
1.0
  9
$DISPSILH
 70
     0
  9
$DIMSCALE
 40
1.0
  9
$DIMASZ
 40
0.18
  9
$DIMEXO
 40
0.0625
  9
$DIMDLI
 40
0.38
  9
$DIMRND
 40
0.0
  9
$DIMDLE
 40
0.0
  9
$DIMEXE
 40
0.18
  9
$DIMTP
 40
0.0
  9
$DIMTM
 40
0.0
  9
$DIMTXT
 40
0.18
  9
$DIMCEN
 40
0.09
  9
$DIMTSZ
 40
0.0
  9
$DIMTOL
 70
     0
  9
$DIMLIM
 70
     0
  9
$DIMTIH
 70
     1
  9
$DIMTOH
 70
     1
  9
$DIMSE1
 70
     0
  9
$DIMSE2
 70
     0
  9
$DIMTAD
 70
     0
  9
$DIMZIN
 70
     0
  9
$DIMBLK
  1

  9
$DIMASO
 70
     1
  9
$DIMSHO
 70
     1
  9
$DIMPOST
  1

  9
$DIMAPOST
  1

  9
$DIMALT
 70
     0
  9
$DIMALTD
 70
     2
  9
$DIMALTF
 40
25.4
  9
$DIMLFAC
 40
1.0
  9
$DIMTOFL
 70
     0
  9
$DIMTVP
 40
0.0
  9
$DIMTIX
 70
     0
  9
$DIMSOXD
 70
     0
  9
$DIMSAH
 70
     0
  9
$DIMBLK1
  1

  9
$DIMBLK2
  1

  9
$DIMSTYLE
  2
Standard
  9
$DIMCLRD
 70
     0
  9
$DIMCLRE
 70
     0
  9
$DIMCLRT
 70
     0
  9
$DIMTFAC
 40
1.0
  9
$DIMGAP
 40
0.09
  9
$DIMJUST
 70
     0
  9
$DIMSD1
 70
     0
  9
$DIMSD2
 70
     0
  9
$DIMTOLJ
 70
     1
  9
$DIMTZIN
 70
     0
  9
$DIMALTZ
 70
     0
  9
$DIMALTTZ
 70
     0
  9
$DIMUPT
 70
     0
  9
$DIMDEC
 70
     4
  9
$DIMTDEC
 70
     4
  9
$DIMALTU
 70
     2
  9
$DIMALTTD
 70
     2
  9
$DIMTXSTY
  7
Standard
  9
$DIMAUNIT
 70
     0
  9
$DIMADEC
 70
     0
  9
$DIMALTRND
 40
0.0
  9
$DIMAZIN
 70
     0
  9
$DIMDSEP
 70
    46
  9
$DIMATFIT
 70
     3
  9
$DIMFRAC
 70
     0
  9
$DIMLDRBLK
  1

  9
$DIMLUNIT
 70
     2
  9
$DIMLWD
 70
    -2
  9
$DIMLWE
 70
    -2
  9
$DIMTMOVE
 70
     0
  9
$DIMFXL
 40
1.0
  9
$DIMFXLON
 70
     0
  9
$DIMJOGANG
 40
0.7853981633974483
  9
$DIMTFILL
 70
     0
  9
$DIMTFILLCLR
 70
     0
  9
$DIMARCSYM
 70
     0
  9
$DIMLTYPE
  6

  9
$DIMLTEX1
  6

  9
$DIMLTEX2
  6

  9
$DIMTXTDIRECTION
 70
     0
  9
$LUNITS
 70
     2
  9
$LUPREC
 70
     4
  9
$SKETCHINC
 40
0.1
  9
$FILLETRAD
 40
0.5
  9
$AUNITS
 70
     0
  9
$AUPREC
 70
     0
  9
$MENU
  1
.
  9
$ELEVATION
 40
0.0
  9
$PELEVATION
 40
0.0
  9
$THICKNESS
 40
0.0
  9
$LIMCHECK
 70
     0
  9
$CHAMFERA
 40
0.5
  9
$CHAMFERB
 40
0.5
  9
$CHAMFERC
 40
1.0
  9
$CHAMFERD
 40
0.0
  9
$SKPOLY
 70
     0
  9
$TDCREATE
 40
2458110.88349537
  9
$TDUCREATE
 40
2458110.841828704
  9
$TDUPDATE
 40
2458110.883506933
  9
$TDUUPDATE
 40
2458110.841840278
  9
$TDINDWG
 40
0.0000000116
  9
$TDUSRTIMER
 40
0.0000000116
  9
$USRTIMER
 70
     1
  9
$ANGBASE
 50
0.0
  9
$ANGDIR
 70
     0
  9
$PDMODE
 70
     0
  9
$PDSIZE
 40
0.0
  9
$PLINEWID
 40
0.0
  9
$SPLFRAME
 70
     0
  9
$SPLINETYPE
 70
     6
  9
$SPLINESEGS
 70
     8
  9
$HANDSEED
  5
106
  9
$SURFTAB1
 70
     6
  9
$SURFTAB2
 70
     6
  9
$SURFTYPE
 70
     6
  9
$SURFU
 70
     6
  9
$SURFV
 70
     6
  9
$UCSBASE
  2

  9
$UCSNAME
  2

  9
$UCSORG
 10
0.0
 20
0.0
 30
0.0
  9
$UCSXDIR
 10
1.0
 20
0.0
 30
0.0
  9
$UCSYDIR
 10
0.0
 20
1.0
 30
0.0
  9
$UCSORTHOREF
  2

  9
$UCSORTHOVIEW
 70
     0
  9
$UCSORGTOP
 10
0.0
 20
0.0
 30
0.0
  9
$UCSORGBOTTOM
 10
0.0
 20
0.0
 30
0.0
  9
$UCSORGLEFT
 10
0.0
 20
0.0
 30
0.0
  9
$UCSORGRIGHT
 10
0.0
 20
0.0
 30
0.0
  9
$UCSORGFRONT
 10
0.0
 20
0.0
 30
0.0
  9
$UCSORGBACK
 10
0.0
 20
0.0
 30
0.0
  9
$PUCSBASE
  2

  9
$PUCSNAME
  2

  9
$PUCSORG
 10
0.0
 20
0.0
 30
0.0
  9
$PUCSXDIR
 10
1.0
 20
0.0
 30
0.0
  9
$PUCSYDIR
 10
0.0
 20
1.0
 30
0.0
  9
$PUCSORTHOREF
  2

  9
$PUCSORTHOVIEW
 70
     0
  9
$PUCSORGTOP
 10
0.0
 20
0.0
 30
0.0
  9
$PUCSORGBOTTOM
 10
0.0
 20
0.0
 30
0.0
  9
$PUCSORGLEFT
 10
0.0
 20
0.0
 30
0.0
  9
$PUCSORGRIGHT
 10
0.0
 20
0.0
 30
0.0
  9
$PUCSORGFRONT
 10
0.0
 20
0.0
 30
0.0
  9
$PUCSORGBACK
 10
0.0
 20
0.0
 30
0.0
  9
$USERI1
 70
     0
  9
$USERI2
 70
     0
  9
$USERI3
 70
     0
  9
$USERI4
 70
     0
  9
$USERI5
 70
     0
  9
$USERR1
 40
0.0
  9
$USERR2
 40
0.0
  9
$USERR3
 40
0.0
  9
$USERR4
 40
0.0
  9
$USERR5
 40
0.0
  9
$WORLDVIEW
 70
     1
  9
$SHADEDGE
 70
     3
  9
$SHADEDIF
 70
    70
  9
$TILEMODE
 70
     1
  9
$MAXACTVP
 70
    64
  9
$PINSBASE
 10
0.0
 20
0.0
 30
0.0
  9
$PLIMCHECK
 70
     0
  9
$PEXTMIN
 10
1.000000000000000E+20
 20
1.000000000000000E+20
 30
1.000000000000000E+20
  9
$PEXTMAX
 10
-1.000000000000000E+20
 20
-1.000000000000000E+20
 30
-1.000000000000000E+20
  9
$PLIMMIN
 10
0.0
 20
0.0
  9
$PLIMMAX
 10
12.0
 20
9.0
  9
$UNITMODE
 70
     0
  9
$VISRETAIN
 70
     1
  9
$PLINEGEN
 70
     0
  9
$PSLTSCALE
 70
     1
  9
$TREEDEPTH
 70
  3020
  9
$CMLSTYLE
  2
Standard
  9
$CMLJUST
 70
     0
  9
$CMLSCALE
 40
1.0
  9
$PROXYGRAPHICS
 70
     1
  9
$MEASUREMENT
 70
     0
  9
$CELWEIGHT
370
    -1
  9
$ENDCAPS
280
     0
  9
$JOINSTYLE
280
     0
  9
$LWDISPLAY
290
     1
  9
$INSUNITS
 70
     1
  9
$HYPERLINKBASE
  1

  9
$STYLESHEET
  1

  9
$XEDIT
290
     1
  9
$CEPSNTYPE
380
     0
  9
$PSTYLEMODE
290
     1
  9
$FINGERPRINTGUID
  2
{E47483C8-5129-41C6-2001-2BBB6556F93D}
  9
$VERSIONGUID
  2
{FAEB1C32-E019-11D5-929B-00C0DF256EC4}
  9
$EXTNAMES
290
     1
  9
$PSVPSCALE
 40
0.0
  9
$OLESTARTUP
290
     0
  9
$SORTENTS
280
   127
  9
$INDEXCTL
280
     0
  9
$HIDETEXT
280
     1
  9
$XCLIPFRAME
280
     2
  9
$HALOGAP
280
     0
  9
$OBSCOLOR
 70
   257
  9
$OBSLTYPE
280
     0
  9
$INTERSECTIONDISPLAY
280
     0
  9
$INTERSECTIONCOLOR
 70
   257
  9
$DIMASSOC
280
     2
  9
$PROJECTNAME
  1

  9
$CAMERADISPLAY
290
     0
  9
$LENSLENGTH
 40
50.0
  9
$CAMERAHEIGHT
 40
0.0
  9
$STEPSPERSEC
 40
2.0
  9
$STEPSIZE
 40
6.0
  9
$3DDWFPREC
 40
2.0
  9
$PSOLWIDTH
 40
0.25
  9
$PSOLHEIGHT
 40
4.0
  9
$LOFTANG1
 40
1.570796326794897
  9
$LOFTANG2
 40
1.570796326794897
  9
$LOFTMAG1
 40
0.0
  9
$LOFTMAG2
 40
0.0
  9
$LOFTPARAM
 70
     7
  9
$LOFTNORMALS
280
     1
  9
$LATITUDE
 40
37.795
  9
$LONGITUDE
 40
-122.394
  9
$NORTHDIRECTION
 40
0.0
  9
$TIMEZONE
 70
 -8000
  9
$LIGHTGLYPHDISPLAY
280
     1
  9
$TILEMODELIGHTSYNCH
280
     1
  9
$CMATERIAL
347
3C
  9
$SOLIDHIST
280
     1
  9
$SHOWHIST
280
     1
  9
$DWFFRAME
280
     2
  9
$DGNFRAME
280
     2
  9
$REALWORLDSCALE
290
     1
  9
$INTERFERECOLOR
 62
   256
  9
$CSHADOW
280
     0
  9
$SHADOWPLANELOCATION
 40
0.0
  0
ENDSEC
  0
SECTION
  2
CLASSES
  0
CLASS
  1
ACDBDICTIONARYWDFLT
  2
AcDbDictionaryWithDefault
  3
ObjectDBX Classes
 90
        0
 91
        4
280
     0
281
     0
  0
CLASS
  1
VISUALSTYLE
  2
AcDbVisualStyle
  3
ObjectDBX Classes
 90
     4095
 91
        4
280
     0
281
     0
  0
CLASS
  1
MATERIAL
  2
AcDbMaterial
  3
ObjectDBX Classes
 90
     1153
 91
        4
280
     0
281
     0
  0
CLASS
  1
SUN
  2
AcDbSun
  3
SCENEOE
 90
     1024
 91
        4
280
     0
281
     0
  0
ENDSEC
  0
SECTION
  2
TABLES
  0
TABLE
  2
VPORT
  5
8
330
0
100
AcDbSymbolTable
 70
     1
  0
VPORT
  5
29
330
8
100
AcDbSymbolTableRecord
100
AcDbViewportTableRecord
  2
*Active
 70
     0
 10
0.0
 20
0.0
 11
1.0
 21
1.0
 12
0.0
 22
0.0
 13
0.0
 23
0.0
 14
0.5
 24
0.5
 15
0.5
 25
0.5
 16
0.0
 26
0.0
 36
1.0
 17
85.92721478333193
 27
12.63330874646664
 37
0.0
 40
177.7332991229835
 41
0.9669230831513923
 42
50.0
 43
0.0
 44
0.0
 50
0.0
 51
0.0
 71
     0
 72
   100
 73
     1
 74
     3
 75
     0
 76
     0
 77
     0
 78
     0
281
     0
 65
     1
110
0.0
120
0.0
130
0.0
111
1.0
121
0.0
131
0.0
112
0.0
122
1.0
132
0.0
 79
     0
146
0.0
 60
     3
 61
     5
292
     1
282
     1
141
0.0
142
0.0
 63
   250
361
3F
  0
ENDTAB
  0
TABLE
  2
LTYPE
  5
5
330
0
100
AcDbSymbolTable
 70
     1
  0
LTYPE
  5
14
330
5
100
AcDbSymbolTableRecord
100
AcDbLinetypeTableRecord
  2
ByBlock
 70
     0
  3

 72
    65
 73
     0
 40
0.0
  0
LTYPE
  5
15
330
5
100
AcDbSymbolTableRecord
100
AcDbLinetypeTableRecord
  2
ByLayer
 70
     0
  3

 72
    65
 73
     0
 40
0.0
  0
LTYPE
  5
16
330
5
100
AcDbSymbolTableRecord
100
AcDbLinetypeTableRecord
  2
Continuous
 70
     0
  3
Solid line
 72
    65
 73
     0
 40
0.0
  0
ENDTAB
  0
TABLE
  2
LAYER
  5
2
330
0
100
AcDbSymbolTable
 70
     3
  0
LAYER
  5
10
330
2
100
AcDbSymbolTableRecord
100
AcDbLayerTableRecord
  2
0
 70
     0
 62
     7
  6
Continuous
370
    -3
390
F
347
3E
  0
LAYER
  5
40
330
2
100
AcDbSymbolTableRecord
100
AcDbLayerTableRecord
  2
Cut
 70
     0
 62
     7
  6
Continuous
370
    -3
390
F
347
3E
  0
LAYER
  5
F2
330
2
100
AcDbSymbolTableRecord
100
AcDbLayerTableRecord
  2
Ritzen
 70
     0
 62
     7
  6
Continuous
370
    -3
390
F
347
3E
  0
ENDTAB
  0
TABLE
  2
STYLE
  5
3
330
0
100
AcDbSymbolTable
 70
     1
  0
STYLE
  5
11
330
3
100
AcDbSymbolTableRecord
100
AcDbTextStyleTableRecord
  2
Standard
 70
     0
 40
0.0
 41
1.0
 50
0.0
 71
     0
 42
0.2
  3
txt
  4

  0
ENDTAB
  0
TABLE
  2
VIEW
  5
6
330
0
100
AcDbSymbolTable
 70
     0
  0
ENDTAB
  0
TABLE
  2
UCS
  5
7
330
0
100
AcDbSymbolTable
 70
     0
  0
ENDTAB
  0
TABLE
  2
APPID
  5
9
330
0
100
AcDbSymbolTable
 70
     1
  0
APPID
  5
12
330
9
100
AcDbSymbolTableRecord
100
AcDbRegAppTableRecord
  2
ACAD
 70
     0
  0
ENDTAB
  0
TABLE
  2
DIMSTYLE
  5
A
330
0
100
AcDbSymbolTable
 70
     1
100
AcDbDimStyleTable
  0
DIMSTYLE
105
27
330
A
100
AcDbSymbolTableRecord
100
AcDbDimStyleTableRecord
  2
Standard
 70
     0
178
     0
340
11
  0
ENDTAB
  0
TABLE
  2
BLOCK_RECORD
  5
1
330
0
100
AcDbSymbolTable
 70
     2
  0
BLOCK_RECORD
  5
1F
330
1
100
AcDbSymbolTableRecord
100
AcDbBlockTableRecord
  2
*Model_Space
340
22
 70
     0
280
     1
281
     0
  0
BLOCK_RECORD
  5
1B
330
1
100
AcDbSymbolTableRecord
100
AcDbBlockTableRecord
  2
*Paper_Space
340
1E
 70
     0
280
     1
281
     0
  0
BLOCK_RECORD
  5
23
330
1
100
AcDbSymbolTableRecord
100
AcDbBlockTableRecord
  2
*Paper_Space0
340
26
 70
     0
280
     1
281
     0
  0
BLOCK_RECORD
  5
5E
330
1
100
AcDbSymbolTableRecord
100
AcDbBlockTableRecord
  2
block 2
340
0
102
{BLKREFS
331
5F
102
}
 70
     0
280
     1
281
     0
  0
ENDTAB
  0
ENDSEC
  0
SECTION
  2
BLOCKS
  0
BLOCK
  5
20
330
1F
100
AcDbEntity
  8
0
100
AcDbBlockBegin
  2
*Model_Space
 70
     0
 10
0.0
 20
0.0
 30
0.0
  3
*Model_Space
  1

  0
ENDBLK
  5
21
330
1F
100
AcDbEntity
  8
0
100
AcDbBlockEnd
  0
BLOCK
  5
1C
330
1B
100
AcDbEntity
 67
     1
  8
0
100
AcDbBlockBegin
  2
*Paper_Space
 70
     0
 10
0.0
 20
0.0
 30
0.0
  3
*Paper_Space
  1

  0
ENDBLK
  5
1D
330
1B
100
AcDbEntity
 67
     1
  8
0
100
AcDbBlockEnd
  0
BLOCK
  5
24
330
23
100
AcDbEntity
  8
0
100
AcDbBlockBegin
  2
*Paper_Space0
 70
     0
 10
0.0
 20
0.0
 30
0.0
  3
*Paper_Space0
  1

  0
ENDBLK
  5
25
330
23
100
AcDbEntity
  8
0
100
AcDbBlockEnd
  0
BLOCK
  5
60
330
5E
100
AcDbEntity
  8
0
100
AcDbBlockBegin
  2
block 2
 70
     0
 10
0.0
 20
0.0
 30
0.0
  3
block 2
  1

  0
SPLINE
  5
62
330
5E
100
AcDbEntity
  8
Cut
 62
   179
420
  1842203
370
     9
100
AcDbSpline
210
0.0
220
0.0
230
1.0
 70
    11
 71
     3
 72
    17
 73
    13
 74
     0
 42
0.0000000001
 43
0.0000000001
 12
1.0
 22
0.0
 32
0.0
 13
1.0
 23
0.0
 33
0.0
 40
0.0
 40
0.0
 40
0.0
 40
0.0
 40
1.0
 40
1.0
 40
1.0
 40
2.0
 40
2.0
 40
2.0
 40
3.0
 40
3.0
 40
3.0
 40
4.0
 40
4.0
 40
4.0
 40
4.0
 10
12.94205602562216
 20
56.15694463438403
 30
0.0
 10
12.94205602562216
 20
55.06699800642273
 30
0.0
 10
12.0584797048581
 20
54.18342168565867
 30
0.0
 10
10.96853307689679
 20
54.18342168565867
 30
0.0
 10
9.878586448935485
 20
54.18342168565867
 30
0.0
 10
8.995010128171423
 20
55.06699800642273
 30
0.0
 10
8.995010128171423
 20
56.15694463438403
 30
0.0
 10
8.995010128171423
 20
57.24689126234534
 30
0.0
 10
9.878586448935485
 20
58.13046758310941
 30
0.0
 10
10.96853307689679
 20
58.13046758310941
 30
0.0
 10
12.0584797048581
 20
58.13046758310941
 30
0.0
 10
12.94205602562216
 20
57.24689126234534
 30
0.0
 10
12.94205602562216
 20
56.15694463438403
 30
0.0
  0
SPLINE
  5
63
330
5E
100
AcDbEntity
  8
Cut
 62
   179
420
  1842203
370
     9
100
AcDbSpline
210
0.0
220
0.0
230
1.0
 70
    11
 71
     3
 72
    17
 73
    13
 74
     0
 42
0.0000000001
 43
0.0000000001
 12
1.0
 22
0.0
 32
0.0
 13
1.0
 23
0.0
 33
0.0
 40
0.0
 40
0.0
 40
0.0
 40
0.0
 40
1.0
 40
1.0
 40
1.0
 40
2.0
 40
2.0
 40
2.0
 40
3.0
 40
3.0
 40
3.0
 40
4.0
 40
4.0
 40
4.0
 40
4.0
 10
16.10567017593068
 20
42.81095918532971
 30
0.0
 10
16.10567017593068
 20
40.84740463263503
 30
0.0
 10
14.51389470474573
 20
39.25562916145007
 30
0.0
 10
12.55034015205105
 20
39.25562916145007
 30
0.0
 10
10.58678559935637
 20
39.25562916145007
 30
0.0
 10
8.995010128171423
 20
40.84740463263503
 30
0.0
 10
8.995010128171423
 20
42.81095918532971
 30
0.0
 10
8.995010128171423
 20
44.77451373802439
 30
0.0
 10
10.58678559935637
 20
46.36628920920933
 30
0.0
 10
12.55034015205105
 20
46.36628920920933
 30
0.0
 10
14.51389470474573
 20
46.36628920920933
 30
0.0
 10
16.10567017593068
 20
44.77451373802439
 30
0.0
 10
16.10567017593068
 20
42.81095918532971
 30
0.0
  0
SPLINE
  5
64
330
5E
100
AcDbEntity
  8
Cut
 62
   179
420
  1842203
370
     9
100
AcDbSpline
210
0.0
220
0.0
230
1.0
 70
    11
 71
     3
 72
    17
 73
    13
 74
     0
 42
0.0000000001
 43
0.0000000001
 12
1.0
 22
0.0
 32
0.0
 13
1.0
 23
0.0
 33
0.0
 40
0.0
 40
0.0
 40
0.0
 40
0.0
 40
1.0
 40
1.0
 40
1.0
 40
2.0
 40
2.0
 40
2.0
 40
3.0
 40
3.0
 40
3.0
 40
4.0
 40
4.0
 40
4.0
 40
4.0
 10
21.93325149274971
 20
31.79509833135853
 30
0.0
 10
21.93325149274971
 20
29.83154377866385
 30
0.0
 10
20.34147602156476
 20
28.2397683074789
 30
0.0
 10
18.37792146887008
 20
28.2397683074789
 30
0.0
 10
16.4143669161754
 20
28.2397683074789
 30
0.0
 10
14.82259144499045
 20
29.83154377866385
 30
0.0
 10
14.82259144499045
 20
31.79509833135853
 30
0.0
 10
14.82259144499045
 20
33.75865288405321
 30
0.0
 10
16.4143669161754
 20
35.35042835523817
 30
0.0
 10
18.37792146887008
 20
35.35042835523817
 30
0.0
 10
20.34147602156476
 20
35.35042835523817
 30
0.0
 10
21.93325149274971
 20
33.75865288405321
 30
0.0
 10
21.93325149274971
 20
31.79509833135853
 30
0.0
  0
SPLINE
  5
65
330
5E
100
AcDbEntity
  8
Cut
 62
   179
420
  1842203
370
     9
100
AcDbSpline
210
0.0
220
0.0
230
1.0
 70
    11
 71
     3
 72
    17
 73
    13
 74
     0
 42
0.0000000001
 43
0.0000000001
 12
1.0
 22
0.0
 32
0.0
 13
1.0
 23
0.0
 33
0.0
 40
0.0
 40
0.0
 40
0.0
 40
0.0
 40
1.0
 40
1.0
 40
1.0
 40
2.0
 40
2.0
 40
2.0
 40
3.0
 40
3.0
 40
3.0
 40
4.0
 40
4.0
 40
4.0
 40
4.0
 10
15.95759341657978
 20
16.8928564383181
 30
0.0
 10
15.95759341657978
 20
14.92930188562342
 30
0.0
 10
14.36581794539483
 20
13.33752641443847
 30
0.0
 10
12.40226339270015
 20
13.33752641443847
 30
0.0
 10
10.43870884000547
 20
13.33752641443847
 30
0.0
 10
8.846933368820519
 20
14.92930188562342
 30
0.0
 10
8.846933368820519
 20
16.8928564383181
 30
0.0
 10
8.846933368820519
 20
18.85641099101278
 30
0.0
 10
10.43870884000547
 20
20.44818646219773
 30
0.0
 10
12.40226339270015
 20
20.44818646219773
 30
0.0
 10
14.36581794539483
 20
20.44818646219773
 30
0.0
 10
15.95759341657978
 20
18.85641099101278
 30
0.0
 10
15.95759341657978
 20
16.8928564383181
 30
0.0
  0
SPLINE
  5
66
330
5E
100
AcDbEntity
  8
Cut
 62
   179
420
  1842203
370
     9
100
AcDbSpline
210
0.0
220
0.0
230
1.0
 70
    11
 71
     3
 72
    17
 73
    13
 74
     0
 42
0.0000000001
 43
0.0000000001
 12
1.0
 22
0.0
 32
0.0
 13
1.0
 23
0.0
 33
0.0
 40
0.0
 40
0.0
 40
0.0
 40
0.0
 40
1.0
 40
1.0
 40
1.0
 40
2.0
 40
2.0
 40
2.0
 40
3.0
 40
3.0
 40
3.0
 40
4.0
 40
4.0
 40
4.0
 40
4.0
 10
31.45930655086114
 20
5.912062270071853
 30
0.0
 10
31.45930655086114
 20
3.948507717377173
 30
0.0
 10
29.86753107967619
 20
2.356732246192224
 30
0.0
 10
27.90397652698151
 20
2.356732246192224
 30
0.0
 10
25.94042197428683
 20
2.356732246192224
 30
0.0
 10
24.34864650310188
 20
3.948507717377173
 30
0.0
 10
24.34864650310188
 20
5.912062270071853
 30
0.0
 10
24.34864650310188
 20
7.875616822766534
 30
0.0
 10
25.94042197428683
 20
9.467392293951484
 30
0.0
 10
27.90397652698151
 20
9.467392293951484
 30
0.0
 10
29.86753107967619
 20
9.467392293951484
 30
0.0
 10
31.45930655086114
 20
7.875616822766534
 30
0.0
 10
31.45930655086114
 20
5.912062270071853
 30
0.0
  0
SPLINE
  5
67
330
5E
100
AcDbEntity
  8
Cut
 62
   179
420
  1842203
370
     9
100
AcDbSpline
210
0.0
220
0.0
230
1.0
 70
    11
 71
     3
 72
    17
 73
    13
 74
     0
 42
0.0000000001
 43
0.0000000001
 12
1.0
 22
0.0
 32
0.0
 13
1.0
 23
0.0
 33
0.0
 40
0.0
 40
0.0
 40
0.0
 40
0.0
 40
1.0
 40
1.0
 40
1.0
 40
2.0
 40
2.0
 40
2.0
 40
3.0
 40
3.0
 40
3.0
 40
4.0
 40
4.0
 40
4.0
 40
4.0
 10
19.74981775101047
 20
-5.510339913051794
 30
0.0
 10
19.74981775101047
 20
-7.473894465746475
 30
0.0
 10
18.15804227982552
 20
-9.065669936931425
 30
0.0
 10
16.19448772713084
 20
-9.065669936931425
 30
0.0
 10
14.23093317443616
 20
-9.065669936931425
 30
0.0
 10
12.63915770325121
 20
-7.473894465746475
 30
0.0
 10
12.63915770325121
 20
-5.510339913051794
 30
0.0
 10
12.63915770325121
 20
-3.546785360357114
 30
0.0
 10
14.23093317443616
 20
-1.955009889172164
 30
0.0
 10
16.19448772713084
 20
-1.955009889172164
 30
0.0
 10
18.15804227982552
 20
-1.955009889172164
 30
0.0
 10
19.74981775101047
 20
-3.546785360357114
 30
0.0
 10
19.74981775101047
 20
-5.510339913051794
 30
0.0
  0
SPLINE
  5
68
330
5E
100
AcDbEntity
  8
Cut
 62
   179
420
  1842203
370
     9
100
AcDbSpline
210
0.0
220
0.0
230
1.0
 70
    11
 71
     3
 72
    17
 73
    13
 74
     0
 42
0.0000000001
 43
0.0000000001
 12
1.0
 22
0.0
 32
0.0
 13
1.0
 23
0.0
 33
0.0
 40
0.0
 40
0.0
 40
0.0
 40
0.0
 40
1.0
 40
1.0
 40
1.0
 40
2.0
 40
2.0
 40
2.0
 40
3.0
 40
3.0
 40
3.0
 40
4.0
 40
4.0
 40
4.0
 40
4.0
 10
33.37111922670697
 20
-17.00107057988572
 30
0.0
 10
33.37111922670697
 20
-18.96462513258041
 30
0.0
 10
31.77934375552202
 20
-20.55640060376535
 30
0.0
 10
29.81578920282734
 20
-20.55640060376535
 30
0.0
 10
27.85223465013266
 20
-20.55640060376535
 30
0.0
 10
26.26045917894771
 20
-18.96462513258041
 30
0.0
 10
26.26045917894771
 20
-17.00107057988572
 30
0.0
 10
26.26045917894771
 20
-15.03751602719104
 30
0.0
 10
27.85223465013266
 20
-13.4457405560061
 30
0.0
 10
29.81578920282734
 20
-13.4457405560061
 30
0.0
 10
31.77934375552202
 20
-13.4457405560061
 30
0.0
 10
33.37111922670697
 20
-15.03751602719104
 30
0.0
 10
33.37111922670697
 20
-17.00107057988572
 30
0.0
  0
SPLINE
  5
69
330
5E
100
AcDbEntity
  8
Cut
 62
   179
420
  1842203
370
     9
100
AcDbSpline
210
0.0
220
0.0
230
1.0
 70
    11
 71
     3
 72
    17
 73
    13
 74
     0
 42
0.0000000001
 43
0.0000000001
 12
1.0
 22
0.0
 32
0.0
 13
1.0
 23
0.0
 33
0.0
 40
0.0
 40
0.0
 40
0.0
 40
0.0
 40
1.0
 40
1.0
 40
1.0
 40
2.0
 40
2.0
 40
2.0
 40
3.0
 40
3.0
 40
3.0
 40
4.0
 40
4.0
 40
4.0
 40
4.0
 10
41.88210870791062
 20
-20.60383649408245
 30
0.0
 10
41.88210870791062
 20
-21.58561377042995
 30
0.0
 10
41.08622097231815
 20
-22.38150150602243
 30
0.0
 10
40.10444369597096
 20
-22.38150150602243
 30
0.0
 10
39.12266641962346
 20
-22.38150150602243
 30
0.0
 10
38.32677868403099
 20
-21.58561377042995
 30
0.0
 10
38.32677868403099
 20
-20.60383649408245
 30
0.0
 10
38.32677868403099
 20
-19.62205921773527
 30
0.0
 10
39.12266641962346
 20
-18.8261714821428
 30
0.0
 10
40.10444369597096
 20
-18.8261714821428
 30
0.0
 10
41.08622097231815
 20
-18.8261714821428
 30
0.0
 10
41.88210870791062
 20
-19.62205921773527
 30
0.0
 10
41.88210870791062
 20
-20.60383649408245
 30
0.0
  0
SPLINE
  5
6A
330
5E
100
AcDbEntity
  8
Cut
 62
   179
420
  1842203
370
     9
100
AcDbSpline
210
0.0
220
0.0
230
1.0
 70
    11
 71
     3
 72
    17
 73
    13
 74
     0
 42
0.0000000001
 43
0.0000000001
 12
1.0
 22
0.0
 32
0.0
 13
1.0
 23
0.0
 33
0.0
 40
0.0
 40
0.0
 40
0.0
 40
0.0
 40
1.0
 40
1.0
 40
1.0
 40
2.0
 40
2.0
 40
2.0
 40
3.0
 40
3.0
 40
3.0
 40
4.0
 40
4.0
 40
4.0
 40
4.0
 10
22.74798211544626
 20
1.931598376039358
 30
0.0
 10
22.74798211544626
 20
0.9498210996918576
 30
0.0
 10
21.95209437985378
 20
0.153933364099383
 30
0.0
 10
20.9703171035066
 20
0.153933364099383
 30
0.0
 10
19.9885398271591
 20
0.153933364099383
 30
0.0
 10
19.19265209156663
 20
0.9498210996918576
 30
0.0
 10
19.19265209156663
 20
1.931598376039358
 30
0.0
 10
19.19265209156663
 20
2.913375652386538
 30
0.0
 10
19.9885398271591
 20
3.709263387979013
 30
0.0
 10
20.9703171035066
 20
3.709263387979013
 30
0.0
 10
21.95209437985378
 20
3.709263387979013
 30
0.0
 10
22.74798211544626
 20
2.913375652386538
 30
0.0
 10
22.74798211544626
 20
1.931598376039358
 30
0.0
  0
SPLINE
  5
6B
330
5E
100
AcDbEntity
  8
Cut
 62
   179
420
  1842203
370
     9
100
AcDbSpline
210
0.0
220
0.0
230
1.0
 70
    11
 71
     3
 72
    17
 73
    13
 74
     0
 42
0.0000000001
 43
0.0000000001
 12
1.0
 22
0.0
 32
0.0
 13
1.0
 23
0.0
 33
0.0
 40
0.0
 40
0.0
 40
0.0
 40
0.0
 40
1.0
 40
1.0
 40
1.0
 40
2.0
 40
2.0
 40
2.0
 40
3.0
 40
3.0
 40
3.0
 40
4.0
 40
4.0
 40
4.0
 40
4.0
 10
13.33899102833632
 20
1.44003460747717
 30
0.0
 10
13.33899102833632
 20
0.6020352844686714
 30
0.0
 10
12.65965835311035
 20
-0.077297390757293
 30
0.0
 10
11.82165903010217
 20
-0.077297390757293
 30
0.0
 10
10.98365970709368
 20
-0.077297390757293
 30
0.0
 10
10.30432703186771
 20
0.6020352844686714
 30
0.0
 10
10.30432703186771
 20
1.44003460747717
 30
0.0
 10
10.30432703186771
 20
2.278033930485349
 30
0.0
 10
10.98365970709368
 20
2.957366605711313
 30
0.0
 10
11.82165903010217
 20
2.957366605711313
 30
0.0
 10
12.65965835311035
 20
2.957366605711313
 30
0.0
 10
13.33899102833632
 20
2.278033930485349
 30
0.0
 10
13.33899102833632
 20
1.44003460747717
 30
0.0
  0
SPLINE
  5
6C
330
5E
100
AcDbEntity
  8
Cut
 62
   179
420
  1842203
370
     9
100
AcDbSpline
210
0.0
220
0.0
230
1.0
 70
    11
 71
     3
 72
    17
 73
    13
 74
     0
 42
0.0000000001
 43
0.0000000001
 12
1.0
 22
0.0
 32
0.0
 13
1.0
 23
0.0
 33
0.0
 40
0.0
 40
0.0
 40
0.0
 40
0.0
 40
1.0
 40
1.0
 40
1.0
 40
2.0
 40
2.0
 40
2.0
 40
3.0
 40
3.0
 40
3.0
 40
4.0
 40
4.0
 40
4.0
 40
4.0
 10
11.82165903010185
 20
-7.582135880939187
 30
0.0
 10
11.82165903010185
 20
-8.420135203947686
 30
0.0
 10
11.14232635487589
 20
-9.09946787917365
 30
0.0
 10
10.30432703186771
 20
-9.09946787917365
 30
0.0
 10
9.466327708859211
 20
-9.09946787917365
 30
0.0
 10
8.786995033633247
 20
-8.420135203947686
 30
0.0
 10
8.786995033633247
 20
-7.582135880939187
 30
0.0
 10
8.786995033633247
 20
-6.744136557931008
 30
0.0
 10
9.466327708859211
 20
-6.064803882705045
 30
0.0
 10
10.30432703186771
 20
-6.064803882705045
 30
0.0
 10
11.14232635487589
 20
-6.064803882705045
 30
0.0
 10
11.82165903010185
 20
-6.744136557931008
 30
0.0
 10
11.82165903010185
 20
-7.582135880939187
 30
0.0
  0
SPLINE
  5
6D
330
5E
100
AcDbEntity
  8
Cut
 62
   179
420
  1842203
370
     9
100
AcDbSpline
210
0.0
220
0.0
230
1.0
 70
    11
 71
     3
 72
    17
 73
    13
 74
     0
 42
0.0000000001
 43
0.0000000001
 12
1.0
 22
0.0
 32
0.0
 13
1.0
 23
0.0
 33
0.0
 40
0.0
 40
0.0
 40
0.0
 40
0.0
 40
1.0
 40
1.0
 40
1.0
 40
2.0
 40
2.0
 40
2.0
 40
3.0
 40
3.0
 40
3.0
 40
4.0
 40
4.0
 40
4.0
 40
4.0
 10
17.47492541481392
 20
10.09200558085925
 30
0.0
 10
17.47492541481392
 20
9.254006257850751
 30
0.0
 10
16.79559273958796
 20
8.574673582624786
 30
0.0
 10
15.95759341657978
 20
8.574673582624786
 30
0.0
 10
15.11959409357128
 20
8.574673582624786
 30
0.0
 10
14.44026141834532
 20
9.254006257850751
 30
0.0
 10
14.44026141834532
 20
10.09200558085925
 30
0.0
 10
14.44026141834532
 20
10.93000490386743
 30
0.0
 10
15.11959409357128
 20
11.60933757909339
 30
0.0
 10
15.95759341657978
 20
11.60933757909339
 30
0.0
 10
16.79559273958796
 20
11.60933757909339
 30
0.0
 10
17.47492541481392
 20
10.93000490386743
 30
0.0
 10
17.47492541481392
 20
10.09200558085925
 30
0.0
  0
SPLINE
  5
6E
330
5E
100
AcDbEntity
  8
Cut
 62
   179
420
  1842203
370
     9
100
AcDbSpline
210
0.0
220
0.0
230
1.0
 70
    11
 71
     3
 72
    17
 73
    13
 74
     0
 42
0.0000000001
 43
0.0000000001
 12
1.0
 22
0.0
 32
0.0
 13
1.0
 23
0.0
 33
0.0
 40
0.0
 40
0.0
 40
0.0
 40
0.0
 40
1.0
 40
1.0
 40
1.0
 40
2.0
 40
2.0
 40
2.0
 40
3.0
 40
3.0
 40
3.0
 40
4.0
 40
4.0
 40
4.0
 40
4.0
 10
24.26531411368104
 20
23.79612291383367
 30
0.0
 10
24.26531411368104
 20
22.95812359082517
 30
0.0
 10
23.58598143845508
 20
22.27879091559921
 30
0.0
 10
22.7479821154469
 20
22.27879091559921
 30
0.0
 10
21.9099827924384
 20
22.27879091559921
 30
0.0
 10
21.23065011721243
 20
22.95812359082517
 30
0.0
 10
21.23065011721243
 20
23.79612291383367
 30
0.0
 10
21.23065011721243
 20
24.63412223684185
 30
0.0
 10
21.9099827924384
 20
25.31345491206782
 30
0.0
 10
22.7479821154469
 20
25.31345491206782
 30
0.0
 10
23.58598143845508
 20
25.31345491206782
 30
0.0
 10
24.26531411368104
 20
24.63412223684185
 30
0.0
 10
24.26531411368104
 20
23.79612291383367
 30
0.0
  0
SPLINE
  5
6F
330
5E
100
AcDbEntity
  8
Cut
 62
   179
420
  1842203
370
     9
100
AcDbSpline
210
0.0
220
0.0
230
1.0
 70
    11
 71
     3
 72
    17
 73
    13
 74
     0
 42
0.0000000001
 43
0.0000000001
 12
1.0
 22
0.0
 32
0.0
 13
1.0
 23
0.0
 33
0.0
 40
0.0
 40
0.0
 40
0.0
 40
0.0
 40
1.0
 40
1.0
 40
1.0
 40
2.0
 40
2.0
 40
2.0
 40
3.0
 40
3.0
 40
3.0
 40
4.0
 40
4.0
 40
4.0
 40
4.0
 10
12.48586507513093
 20
35.29881453482643
 30
0.0
 10
12.48586507513093
 20
34.46081521181794
 30
0.0
 10
11.80653239990497
 20
33.78148253659197
 30
0.0
 10
10.96853307689679
 20
33.78148253659197
 30
0.0
 10
10.13053375388829
 20
33.78148253659197
 30
0.0
 10
9.45120107866233
 20
34.46081521181794
 30
0.0
 10
9.45120107866233
 20
35.29881453482643
 30
0.0
 10
9.45120107866233
 20
36.13681385783461
 30
0.0
 10
10.13053375388829
 20
36.81614653306058
 30
0.0
 10
10.96853307689679
 20
36.81614653306058
 30
0.0
 10
11.80653239990497
 20
36.81614653306058
 30
0.0
 10
12.48586507513093
 20
36.13681385783461
 30
0.0
 10
12.48586507513093
 20
35.29881453482643
 30
0.0
  0
SPLINE
  5
70
330
5E
100
AcDbEntity
  8
Cut
 62
   179
420
  1842203
370
     9
100
AcDbSpline
210
0.0
220
0.0
230
1.0
 70
    11
 71
     3
 72
    17
 73
    13
 74
     0
 42
0.0000000001
 43
0.0000000001
 12
1.0
 22
0.0
 32
0.0
 13
1.0
 23
0.0
 33
0.0
 40
0.0
 40
0.0
 40
0.0
 40
0.0
 40
1.0
 40
1.0
 40
1.0
 40
2.0
 40
2.0
 40
2.0
 40
3.0
 40
3.0
 40
3.0
 40
4.0
 40
4.0
 40
4.0
 40
4.0
 10
13.33899102833599
 20
50.27485544743368
 30
0.0
 10
13.33899102833599
 20
49.43685612442518
 30
0.0
 10
12.65965835311003
 20
48.75752344919954
 30
0.0
 10
11.82165903010185
 20
48.75752344919954
 30
0.0
 10
10.98365970709335
 20
48.75752344919954
 30
0.0
 10
10.30432703186739
 20
49.43685612442518
 30
0.0
 10
10.30432703186739
 20
50.27485544743368
 30
0.0
 10
10.30432703186739
 20
51.1128547704425
 30
0.0
 10
10.98365970709335
 20
51.79218744566814
 30
0.0
 10
11.82165903010185
 20
51.79218744566814
 30
0.0
 10
12.65965835311003
 20
51.79218744566814
 30
0.0
 10
13.33899102833599
 20
51.1128547704425
 30
0.0
 10
13.33899102833599
 20
50.27485544743368
 30
0.0
  0
SPLINE
  5
71
330
5E
100
AcDbEntity
  8
Cut
 62
   179
420
  1842203
370
     9
100
AcDbSpline
210
0.0
220
0.0
230
1.0
 70
    11
 71
     3
 72
    17
 73
    13
 74
     0
 42
0.0000000001
 43
0.0000000001
 12
1.0
 22
0.0
 32
0.0
 13
1.0
 23
0.0
 33
0.0
 40
0.0
 40
0.0
 40
0.0
 40
0.0
 40
1.0
 40
1.0
 40
1.0
 40
2.0
 40
2.0
 40
2.0
 40
3.0
 40
3.0
 40
3.0
 40
4.0
 40
4.0
 40
4.0
 40
4.0
 10
22.62448922788618
 20
-22.86087742365546
 30
0.0
 10
21.64508382734521
 20
-22.79267418514693
 30
0.0
 10
20.90640852605353
 20
-21.94341958575152
 30
0.0
 10
20.97461176456174
 20
-20.96401418521054
 30
0.0
 10
21.04281500306995
 20
-19.98460878466926
 30
0.0
 10
21.89206960246568
 20
-19.24593348337757
 30
0.0
 10
22.87147500300697
 20
-19.31413672188578
 30
0.0
 10
23.85088040354762
 20
-19.38233996039431
 30
0.0
 10
24.5895557048393
 20
-20.23159455978972
 30
0.0
 10
24.52135246633109
 20
-21.21099996033101
 30
0.0
 10
24.45314922782288
 20
-22.19040536087198
 30
0.0
 10
23.60389462842715
 20
-22.92908066216367
 30
0.0
 10
22.62448922788618
 20
-22.86087742365546
 30
0.0
  0
SPLINE
  5
72
330
5E
100
AcDbEntity
  8
Cut
 62
   179
420
  1842203
370
     9
100
AcDbSpline
210
0.0
220
0.0
230
1.0
 70
    11
 71
     3
 72
    17
 73
    13
 74
     0
 42
0.0000000001
 43
0.0000000001
 12
1.0
 22
0.0
 32
0.0
 13
1.0
 23
0.0
 33
0.0
 40
0.0
 40
0.0
 40
0.0
 40
0.0
 40
1.0
 40
1.0
 40
1.0
 40
2.0
 40
2.0
 40
2.0
 40
3.0
 40
3.0
 40
3.0
 40
4.0
 40
4.0
 40
4.0
 40
4.0
 10
15.50724033231996
 20
-16.28695600653235
 30
0.0
 10
15.13858778320174
 20
-17.19689112420842
 30
0.0
 10
14.10208768547378
 20
-17.6356873442726
 30
0.0
 10
13.19215256779739
 20
-17.2670347951547
 30
0.0
 10
12.28221745012067
 20
-16.89838224603712
 30
0.0
 10
11.84342123005682
 20
-15.86188214830852
 30
0.0
 10
12.21207377917472
 20
-14.9519470306318
 30
0.0
 10
12.58072632829261
 20
-14.04201191295573
 30
0.0
 10
13.61722642602058
 20
-13.60321569289188
 30
0.0
 10
14.52716154369729
 20
-13.97186824200978
 30
0.0
 10
15.43709666137369
 20
-14.34052079112735
 30
0.0
 10
15.87589288143754
 20
-15.37702088885564
 30
0.0
 10
15.50724033231996
 20
-16.28695600653235
 30
0.0
  0
SPLINE
  5
73
330
5E
100
AcDbEntity
  8
Cut
 62
   179
420
  1842203
370
     9
100
AcDbSpline
210
0.0
220
0.0
230
1.0
 70
    11
 71
     3
 72
    17
 73
    13
 74
     0
 42
0.0000000001
 43
0.0000000001
 12
1.0
 22
0.0
 32
0.0
 13
1.0
 23
0.0
 33
0.0
 40
0.0
 40
0.0
 40
0.0
 40
0.0
 40
1.0
 40
1.0
 40
1.0
 40
2.0
 40
2.0
 40
2.0
 40
3.0
 40
3.0
 40
3.0
 40
4.0
 40
4.0
 40
4.0
 40
4.0
 10
10.15772481803464
 20
-22.44450341977053
 30
0.0
 10
11.1049668421639
 20
-22.18639652703964
 30
0.0
 10
12.08209520228293
 20
-22.74505093110698
 30
0.0
 10
12.34020209501415
 20
-23.69229295523623
 30
0.0
 10
12.59830898774633
 20
-24.63953497936549
 30
0.0
 10
12.03965458367802
 20
-25.61666333948452
 30
0.0
 10
11.09241255954845
 20
-25.87477023221638
 30
0.0
 10
10.14517053541951
 20
-26.13287712494759
 30
0.0
 10
9.168042175300803
 20
-25.57422272087994
 30
0.0
 10
8.909935282569265
 20
-24.62698069675036
 30
0.0
 10
8.651828389837407
 20
-23.67973867262143
 30
0.0
 10
9.210482793905388
 20
-22.70261031250239
 30
0.0
 10
10.15772481803464
 20
-22.44450341977053
 30
0.0
  0
SPLINE
  5
74
330
5E
100
AcDbEntity
  8
Cut
 62
   179
420
  1842203
370
     9
100
AcDbSpline
210
0.0
220
0.0
230
1.0
 70
    11
 71
     3
 72
    17
 73
    13
 74
     0
 42
0.0000000001
 43
0.0000000001
 12
1.0
 22
0.0
 32
0.0
 13
1.0
 23
0.0
 33
0.0
 40
0.0
 40
0.0
 40
0.0
 40
0.0
 40
1.0
 40
1.0
 40
1.0
 40
2.0
 40
2.0
 40
2.0
 40
3.0
 40
3.0
 40
3.0
 40
4.0
 40
4.0
 40
4.0
 40
4.0
 10
13.54466657939427
 20
-31.93804207414857
 30
0.0
 10
14.49190860352353
 20
-31.67993518141767
 30
0.0
 10
15.46903696364256
 20
-32.23858958548501
 30
0.0
 10
15.72714385637378
 20
-33.18583160961426
 30
0.0
 10
15.98525074910595
 20
-34.13307363374352
 30
0.0
 10
15.42659634503765
 20
-35.11020199386255
 30
0.0
 10
14.47935432090808
 20
-35.36830888659441
 30
0.0
 10
13.53211229677914
 20
-35.62641577932563
 30
0.0
 10
12.55498393666043
 20
-35.06776137525765
 30
0.0
 10
12.29687704392889
 20
-34.12051935112839
 30
0.0
 10
12.03877015119704
 20
-33.17327732699945
 30
0.0
 10
12.59742455526502
 20
-32.19614896688042
 30
0.0
 10
13.54466657939427
 20
-31.93804207414857
 30
0.0
  0
SPLINE
  5
75
330
5E
100
AcDbEntity
  8
Cut
 62
   179
420
  1842203
370
     9
100
AcDbSpline
210
0.0
220
0.0
230
1.0
 70
    11
 71
     3
 72
    17
 73
    13
 74
     0
 42
0.0000000001
 43
0.0000000001
 12
1.0
 22
0.0
 32
0.0
 13
1.0
 23
0.0
 33
0.0
 40
0.0
 40
0.0
 40
0.0
 40
0.0
 40
1.0
 40
1.0
 40
1.0
 40
2.0
 40
2.0
 40
2.0
 40
3.0
 40
3.0
 40
3.0
 40
4.0
 40
4.0
 40
4.0
 40
4.0
 10
23.88130263234482
 20
-32.44164965725942
 30
0.0
 10
24.82854465647407
 20
-32.18354276452853
 30
0.0
 10
25.8056730165931
 20
-32.74219716859587
 30
0.0
 10
26.06377990932432
 20
-33.68943919272512
 30
0.0
 10
26.3218868020565
 20
-34.63668121685438
 30
0.0
 10
25.7632323979882
 20
-35.61380957697341
 30
0.0
 10
24.81599037385862
 20
-35.87191646970526
 30
0.0
 10
23.86874834972969
 20
-36.13002336243648
 30
0.0
 10
22.89161998961098
 20
-35.57136895836882
 30
0.0
 10
22.63351309687944
 20
-34.62412693423924
 30
0.0
 10
22.37540620414758
 20
-33.67688491011031
 30
0.0
 10
22.93406060821556
 20
-32.69975654999128
 30
0.0
 10
23.88130263234482
 20
-32.44164965725942
 30
0.0
  0
SPLINE
  5
76
330
5E
100
AcDbEntity
  8
Cut
 62
   179
420
  1842203
370
     9
100
AcDbSpline
210
0.0
220
0.0
230
1.0
 70
    11
 71
     3
 72
    17
 73
    13
 74
     0
 42
0.0000000001
 43
0.0000000001
 12
1.0
 22
0.0
 32
0.0
 13
1.0
 23
0.0
 33
0.0
 40
0.0
 40
0.0
 40
0.0
 40
0.0
 40
1.0
 40
1.0
 40
1.0
 40
2.0
 40
2.0
 40
2.0
 40
3.0
 40
3.0
 40
3.0
 40
4.0
 40
4.0
 40
4.0
 40
4.0
 10
29.7441731446387
 20
-40.50419335056707
 30
0.0
 10
30.69141516876795
 20
-40.24608645783618
 30
0.0
 10
31.66854352888699
 20
-40.80474086190351
 30
0.0
 10
31.9266504216182
 20
-41.75198288603277
 30
0.0
 10
32.18475731435038
 20
-42.69922491016202
 30
0.0
 10
31.62610291028208
 20
-43.67635327028106
 30
0.0
 10
30.6788608861525
 20
-43.93446016301291
 30
0.0
 10
29.73161886202357
 20
-44.19256705574413
 30
0.0
 10
28.75449050190486
 20
-43.63391265167648
 30
0.0
 10
28.49638360917332
 20
-42.6866706275469
 30
0.0
 10
28.23827671644146
 20
-41.73942860341796
 30
0.0
 10
28.79693112050944
 20
-40.76230024329861
 30
0.0
 10
29.7441731446387
 20
-40.50419335056707
 30
0.0
  0
SPLINE
  5
77
330
5E
100
AcDbEntity
  8
Cut
 62
   179
420
  1842203
370
     9
100
AcDbSpline
210
0.0
220
0.0
230
1.0
 70
    11
 71
     3
 72
    17
 73
    13
 74
     0
 42
0.0000000001
 43
0.0000000001
 12
1.0
 22
0.0
 32
0.0
 13
1.0
 23
0.0
 33
0.0
 40
0.0
 40
0.0
 40
0.0
 40
0.0
 40
1.0
 40
1.0
 40
1.0
 40
2.0
 40
2.0
 40
2.0
 40
3.0
 40
3.0
 40
3.0
 40
4.0
 40
4.0
 40
4.0
 40
4.0
 10
39.6370998252139
 20
-43.97684959969891
 30
0.0
 10
40.58434184934316
 20
-43.71874270696802
 30
0.0
 10
41.56147020946219
 20
-44.27739711103535
 30
0.0
 10
41.81957710219341
 20
-45.22463913516461
 30
0.0
 10
42.07768399492559
 20
-46.17188115929386
 30
0.0
 10
41.51902959085729
 20
-47.14900951941289
 30
0.0
 10
40.57178756672739
 20
-47.40711641214475
 30
0.0
 10
39.62454554259877
 20
-47.66522330487597
 30
0.0
 10
38.64741718248006
 20
-47.10656890080831
 30
0.0
 10
38.38931028974853
 20
-46.15932687667873
 30
0.0
 10
38.13120339701699
 20
-45.21208485254979
 30
0.0
 10
38.68985780108465
 20
-44.23495649243044
 30
0.0
 10
39.6370998252139
 20
-43.97684959969891
 30
0.0
  0
SPLINE
  5
78
330
5E
100
AcDbEntity
  8
Cut
 62
   179
420
  1842203
370
     9
100
AcDbSpline
210
0.0
220
0.0
230
1.0
 70
    11
 71
     3
 72
    17
 73
    13
 74
     0
 42
0.0000000001
 43
0.0000000001
 12
1.0
 22
0.0
 32
0.0
 13
1.0
 23
0.0
 33
0.0
 40
0.0
 40
0.0
 40
0.0
 40
0.0
 40
1.0
 40
1.0
 40
1.0
 40
2.0
 40
2.0
 40
2.0
 40
3.0
 40
3.0
 40
3.0
 40
4.0
 40
4.0
 40
4.0
 40
4.0
 10
41.81957710219341
 20
-28.7337797354011
 30
0.0
 10
42.76681912632267
 20
-28.4756728426702
 30
0.0
 10
43.7439474864417
 20
-29.03432724673754
 30
0.0
 10
44.00205437917291
 20
-29.9815692708668
 30
0.0
 10
44.26016127190509
 20
-30.92881129499605
 30
0.0
 10
43.70150686783679
 20
-31.90593965511508
 30
0.0
 10
42.75426484370721
 20
-32.16404654784694
 30
0.0
 10
41.80702281957828
 20
-32.42215344057816
 30
0.0
 10
40.82989445945957
 20
-31.8634990365105
 30
0.0
 10
40.57178756672803
 20
-30.91625701238092
 30
0.0
 10
40.31368067399617
 20
-29.96901498825199
 30
0.0
 10
40.87233507806415
 20
-28.99188662813296
 30
0.0
 10
41.81957710219341
 20
-28.7337797354011
 30
0.0
  0
SPLINE
  5
79
330
5E
100
AcDbEntity
  8
Cut
 62
   179
420
  1842203
370
     9
100
AcDbSpline
210
0.0
220
0.0
230
1.0
 70
    11
 71
     3
 72
    17
 73
    13
 74
     0
 42
0.0000000001
 43
0.0000000001
 12
1.0
 22
0.0
 32
0.0
 13
1.0
 23
0.0
 33
0.0
 40
0.0
 40
0.0
 40
0.0
 40
0.0
 40
1.0
 40
1.0
 40
1.0
 40
2.0
 40
2.0
 40
2.0
 40
3.0
 40
3.0
 40
3.0
 40
4.0
 40
4.0
 40
4.0
 40
4.0
 10
37.0137028061356
 20
-10.18749409972909
 30
0.0
 10
37.923637923812
 20
-10.55614664884763
 30
0.0
 10
38.36243414387617
 20
-11.59264674657528
 30
0.0
 10
37.99378159475827
 20
-12.50258186425167
 30
0.0
 10
37.6251290456407
 20
-13.41251698192838
 30
0.0
 10
36.58862894791209
 20
-13.85131320199224
 30
0.0
 10
35.67869383023474
 20
-13.48266065287466
 30
0.0
 10
34.76875871255898
 20
-13.11400810375644
 30
0.0
 10
34.32996249249513
 20
-12.07750800602848
 30
0.0
 10
34.69861504161335
 20
-11.16757288835176
 30
0.0
 10
35.0672675907306
 20
-10.25763777067537
 30
0.0
 10
36.10376768845921
 20
-9.818841550611516
 30
0.0
 10
37.0137028061356
 20
-10.18749409972909
 30
0.0
  0
SPLINE
  5
7A
330
5E
100
AcDbEntity
  8
Cut
 62
   179
420
  1842203
370
     9
100
AcDbSpline
210
0.0
220
0.0
230
1.0
 70
    11
 71
     3
 72
    17
 73
    13
 74
     0
 42
0.0000000001
 43
0.0000000001
 12
1.0
 22
0.0
 32
0.0
 13
1.0
 23
0.0
 33
0.0
 40
0.0
 40
0.0
 40
0.0
 40
0.0
 40
1.0
 40
1.0
 40
1.0
 40
2.0
 40
2.0
 40
2.0
 40
3.0
 40
3.0
 40
3.0
 40
4.0
 40
4.0
 40
4.0
 40
4.0
 10
27.33123875557409
 20
15.42330776096168
 30
0.0
 10
28.24117387325049
 20
15.05465521184314
 30
0.0
 10
28.67997009331465
 20
14.0181551141155
 30
0.0
 10
28.31131754419676
 20
13.10821999643911
 30
0.0
 10
27.94266499507918
 20
12.19828487876239
 30
0.0
 10
26.90616489735057
 20
11.75948865869854
 30
0.0
 10
25.99622977967354
 20
12.12814120781612
 30
0.0
 10
25.08629466199747
 20
12.49679375693433
 30
0.0
 10
24.64749844193362
 20
13.5332938546623
 30
0.0
 10
25.01615099105183
 20
14.44322897233901
 30
0.0
 10
25.38480354016909
 20
15.35316409001541
 30
0.0
 10
26.4213036378977
 20
15.79196031007926
 30
0.0
 10
27.33123875557409
 20
15.42330776096168
 30
0.0
  0
SPLINE
  5
7B
330
5E
100
AcDbEntity
  8
Cut
 62
   179
420
  1842203
370
     9
100
AcDbSpline
210
0.0
220
0.0
230
1.0
 70
    11
 71
     3
 72
    17
 73
    13
 74
     0
 42
0.0000000001
 43
0.0000000001
 12
1.0
 22
0.0
 32
0.0
 13
1.0
 23
0.0
 33
0.0
 40
0.0
 40
0.0
 40
0.0
 40
0.0
 40
1.0
 40
1.0
 40
1.0
 40
2.0
 40
2.0
 40
2.0
 40
3.0
 40
3.0
 40
3.0
 40
4.0
 40
4.0
 40
4.0
 40
4.0
 10
15.78463083625714
 20
25.4437061904063
 30
0.0
 10
16.69456595393353
 20
25.07505364128776
 30
0.0
 10
17.1333621739977
 20
24.03855354356011
 30
0.0
 10
16.76470962487981
 20
23.12861842588372
 30
0.0
 10
16.39605707576223
 20
22.21868330820701
 30
0.0
 10
15.35955697803362
 20
21.77988708814315
 30
0.0
 10
14.44962186035659
 20
22.14853963726073
 30
0.0
 10
13.53968674268051
 20
22.51719218637895
 30
0.0
 10
13.10089052261666
 20
23.55369228410691
 30
0.0
 10
13.46954307173488
 20
24.46362740178363
 30
0.0
 10
13.83819562085214
 20
25.37356251946002
 30
0.0
 10
14.87469571858074
 20
25.81235873952387
 30
0.0
 10
15.78463083625714
 20
25.4437061904063
 30
0.0
  0
SPLINE
  5
7C
330
5E
100
AcDbEntity
  8
Cut
 62
   179
420
  1842203
370
     9
100
AcDbSpline
210
0.0
220
0.0
230
1.0
 70
    11
 71
     3
 72
    17
 73
    13
 74
     0
 42
0.0000000001
 43
0.0000000001
 12
1.0
 22
0.0
 32
0.0
 13
1.0
 23
0.0
 33
0.0
 40
0.0
 40
0.0
 40
0.0
 40
0.0
 40
1.0
 40
1.0
 40
1.0
 40
2.0
 40
2.0
 40
2.0
 40
3.0
 40
3.0
 40
3.0
 40
4.0
 40
4.0
 40
4.0
 40
4.0
 10
11.29257317674166
 20
29.18164261561385
 30
0.0
 10
12.20250829441805
 20
28.81299006649531
 30
0.0
 10
12.64130451448223
 20
27.77648996876766
 30
0.0
 10
12.27265196536433
 20
26.86655485109127
 30
0.0
 10
11.90399941624675
 20
25.95661973341456
 30
0.0
 10
10.86749931851815
 20
25.51782351335071
 30
0.0
 10
9.95756420084111
 20
25.88647606246828
 30
0.0
 10
9.047629083165036
 20
26.2551286115865
 30
0.0
 10
8.608832863101187
 20
27.29162870931447
 30
0.0
 10
8.977485412219405
 20
28.20156382699118
 30
0.0
 10
9.34613796133666
 20
29.11149894466757
 30
0.0
 10
10.38263805906527
 20
29.55029516473142
 30
0.0
 10
11.29257317674166
 20
29.18164261561385
 30
0.0
  0
SPLINE
  5
7D
330
5E
100
AcDbEntity
  8
Cut
 62
   179
420
  1842203
370
     9
100
AcDbSpline
210
0.0
220
0.0
230
1.0
 70
    11
 71
     3
 72
    17
 73
    13
 74
     0
 42
0.0000000001
 43
0.0000000001
 12
1.0
 22
0.0
 32
0.0
 13
1.0
 23
0.0
 33
0.0
 40
0.0
 40
0.0
 40
0.0
 40
0.0
 40
1.0
 40
1.0
 40
1.0
 40
2.0
 40
2.0
 40
2.0
 40
3.0
 40
3.0
 40
3.0
 40
4.0
 40
4.0
 40
4.0
 40
4.0
 10
27.33123875557441
 20
-8.781535863209044
 30
0.0
 10
28.2411738732508
 20
-9.150188412327584
 30
0.0
 10
28.67997009331497
 20
-10.18668851005523
 30
0.0
 10
28.31131754419708
 20
-11.09662362773162
 30
0.0
 10
27.9426649950795
 20
-12.00655874540834
 30
0.0
 10
26.90616489735089
 20
-12.44535496547219
 30
0.0
 10
25.99622977967386
 20
-12.07670241635461
 30
0.0
 10
25.08629466199779
 20
-11.70804986723639
 30
0.0
 10
24.64749844193394
 20
-10.67154976950843
 30
0.0
 10
25.01615099105215
 20
-9.761614651831712
 30
0.0
 10
25.38480354016941
 20
-8.851679534155318
 30
0.0
 10
26.42130363789802
 20
-8.412883314091468
 30
0.0
 10
27.33123875557441
 20
-8.781535863209044
 30
0.0
  0
SPLINE
  5
7E
330
5E
100
AcDbEntity
  8
Cut
 62
   179
420
  1842203
370
     9
100
AcDbSpline
210
0.0
220
0.0
230
1.0
 70
    11
 71
     3
 72
    17
 73
    13
 74
     0
 42
0.0000000001
 43
0.0000000001
 12
1.0
 22
0.0
 32
0.0
 13
1.0
 23
0.0
 33
0.0
 40
0.0
 40
0.0
 40
0.0
 40
0.0
 40
1.0
 40
1.0
 40
1.0
 40
2.0
 40
2.0
 40
2.0
 40
3.0
 40
3.0
 40
3.0
 40
4.0
 40
4.0
 40
4.0
 40
4.0
 10
27.55941422744582
 20
-1.119638658789409
 30
0.0
 10
28.81808985996562
 20
-1.629580490275999
 30
0.0
 10
29.42505853180543
 20
-3.063328227637484
 30
0.0
 10
28.9151167003198
 20
-4.322003860156966
 30
0.0
 10
28.40517486883482
 20
-5.58067949267741
 30
0.0
 10
26.97142713147205
 20
-6.187648164516903
 30
0.0
 10
25.71275149895128
 20
-5.677706333031596
 30
0.0
 10
24.45407586643212
 20
-5.167764501545648
 30
0.0
 10
23.84710719459263
 20
-3.734016764183842
 30
0.0
 10
24.35704902607858
 20
-2.475341131663398
 30
0.0
 10
24.86699085756324
 20
-1.216665499143916
 30
0.0
 10
26.30073859492601
 20
-0.6096968273044235
 30
0.0
 10
27.55941422744582
 20
-1.119638658789409
 30
0.0
  0
SPLINE
  5
7F
330
5E
100
AcDbEntity
  8
Cut
 62
   179
420
  1842203
370
     9
100
AcDbSpline
210
0.0
220
0.0
230
1.0
 70
    11
 71
     3
 72
    17
 73
    13
 74
     0
 42
0.0000000001
 43
0.0000000001
 12
1.0
 22
0.0
 32
0.0
 13
1.0
 23
0.0
 33
0.0
 40
0.0
 40
0.0
 40
0.0
 40
0.0
 40
1.0
 40
1.0
 40
1.0
 40
2.0
 40
2.0
 40
2.0
 40
3.0
 40
3.0
 40
3.0
 40
4.0
 40
4.0
 40
4.0
 40
4.0
 10
21.8936484677537
 20
19.17189027543919
 30
0.0
 10
23.15232410027351
 20
18.6619484439526
 30
0.0
 10
23.75929277211332
 20
17.22820070659112
 30
0.0
 10
23.24935094062769
 20
15.96952507407164
 30
0.0
 10
22.73940910914271
 20
14.71084944155119
 30
0.0
 10
21.30566137177994
 20
14.1038807697117
 30
0.0
 10
20.04698573925917
 20
14.613822601197
 30
0.0
 10
18.78831010674001
 20
15.12376443268295
 30
0.0
 10
18.18134143490052
 20
16.55751217004476
 30
0.0
 10
18.69128326638647
 20
17.8161878025652
 30
0.0
 10
19.20122509787113
 20
19.07486343508468
 30
0.0
 10
20.6349728352339
 20
19.68183210692418
 30
0.0
 10
21.8936484677537
 20
19.17189027543919
 30
0.0
  0
SPLINE
  5
80
330
5E
100
AcDbEntity
  8
Cut
 62
   179
420
  1842203
370
     9
100
AcDbSpline
210
0.0
220
0.0
230
1.0
 70
    11
 71
     3
 72
    17
 73
    13
 74
     0
 42
0.0000000001
 43
0.0000000001
 12
1.0
 22
0.0
 32
0.0
 13
1.0
 23
0.0
 33
0.0
 40
0.0
 40
0.0
 40
0.0
 40
0.0
 40
1.0
 40
1.0
 40
1.0
 40
2.0
 40
2.0
 40
2.0
 40
3.0
 40
3.0
 40
3.0
 40
4.0
 40
4.0
 40
4.0
 40
4.0
 10
35.18383742217736
 20
-3.265470317786003
 30
0.0
 10
36.44251305469717
 20
-3.775412149272593
 30
0.0
 10
37.04948172653697
 20
-5.209159886634078
 30
0.0
 10
36.53953989505167
 20
-6.467835519153239
 30
0.0
 10
36.02959806356636
 20
-7.726511151673683
 30
0.0
 10
34.5958503262036
 20
-8.333479823513496
 30
0.0
 10
33.33717469368315
 20
-7.82353799202819
 30
0.0
 10
32.07849906116399
 20
-7.313596160542242
 30
0.0
 10
31.47153038932418
 20
-5.879848423180115
 30
0.0
 10
31.98147222081013
 20
-4.621172790659671
 30
0.0
 10
32.49141405229479
 20
-3.36249715814051
 30
0.0
 10
33.92516178965756
 20
-2.755528486300697
 30
0.0
 10
35.18383742217736
 20
-3.265470317786003
 30
0.0
  0
SPLINE
  5
81
330
5E
100
AcDbEntity
  8
Cut
 62
   179
420
  1842203
370
     9
100
AcDbSpline
210
0.0
220
0.0
230
1.0
 70
    11
 71
     3
 72
    17
 73
    13
 74
     0
 42
0.0000000001
 43
0.0000000001
 12
1.0
 22
0.0
 32
0.0
 13
1.0
 23
0.0
 33
0.0
 40
0.0
 40
0.0
 40
0.0
 40
0.0
 40
1.0
 40
1.0
 40
1.0
 40
2.0
 40
2.0
 40
2.0
 40
3.0
 40
3.0
 40
3.0
 40
4.0
 40
4.0
 40
4.0
 40
4.0
 10
28.82730789122829
 20
-24.18850259484506
 30
0.0
 10
30.08598352374809
 20
-24.69844442633165
 30
0.0
 10
30.69295219558791
 20
-26.13219216369314
 30
0.0
 10
30.1830103641026
 20
-27.3908677962123
 30
0.0
 10
29.6730685326173
 20
-28.64954342873274
 30
0.0
 10
28.23932079525453
 20
-29.25651210057256
 30
0.0
 10
26.98064516273408
 20
-28.74657026908725
 30
0.0
 10
25.72196953021492
 20
-28.2366284376013
 30
0.0
 10
25.11500085837511
 20
-26.80288070023918
 30
0.0
 10
25.62494268986106
 20
-25.54420506771873
 30
0.0
 10
26.13488452134572
 20
-24.28552943519957
 30
0.0
 10
27.56863225870849
 20
-23.67856076335976
 30
0.0
 10
28.82730789122829
 20
-24.18850259484506
 30
0.0
  0
SPLINE
  5
82
330
5E
100
AcDbEntity
  8
Cut
 62
   179
420
  1842203
370
     9
100
AcDbSpline
210
0.0
220
0.0
230
1.0
 70
    11
 71
     3
 72
    17
 73
    13
 74
     0
 42
0.0000000001
 43
0.0000000001
 12
1.0
 22
0.0
 32
0.0
 13
1.0
 23
0.0
 33
0.0
 40
0.0
 40
0.0
 40
0.0
 40
0.0
 40
1.0
 40
1.0
 40
1.0
 40
2.0
 40
2.0
 40
2.0
 40
3.0
 40
3.0
 40
3.0
 40
4.0
 40
4.0
 40
4.0
 40
4.0
 10
20.9703171035066
 20
-27.36308875025278
 30
0.0
 10
20.9703171035066
 20
-29.32664330294746
 30
0.0
 10
19.37854163232165
 20
-30.91841877413241
 30
0.0
 10
17.41498707962697
 20
-30.91841877413241
 30
0.0
 10
15.45143252693229
 20
-30.91841877413241
 30
0.0
 10
13.85965705574734
 20
-29.32664330294746
 30
0.0
 10
13.85965705574734
 20
-27.36308875025278
 30
0.0
 10
13.85965705574734
 20
-25.3995341975581
 30
0.0
 10
15.45143252693229
 20
-23.80775872637315
 30
0.0
 10
17.41498707962697
 20
-23.80775872637315
 30
0.0
 10
19.37854163232165
 20
-23.80775872637315
 30
0.0
 10
20.9703171035066
 20
-25.3995341975581
 30
0.0
 10
20.9703171035066
 20
-27.36308875025278
 30
0.0
  0
SPLINE
  5
83
330
5E
100
AcDbEntity
  8
Cut
 62
   179
420
  1842203
370
     9
100
AcDbSpline
210
0.0
220
0.0
230
1.0
 70
    11
 71
     3
 72
    17
 73
    13
 74
     0
 42
0.0000000001
 43
0.0000000001
 12
1.0
 22
0.0
 32
0.0
 13
1.0
 23
0.0
 33
0.0
 40
0.0
 40
0.0
 40
0.0
 40
0.0
 40
1.0
 40
1.0
 40
1.0
 40
2.0
 40
2.0
 40
2.0
 40
3.0
 40
3.0
 40
3.0
 40
4.0
 40
4.0
 40
4.0
 40
4.0
 10
52.69086168154101
 20
-49.8032630803356
 30
0.0
 10
52.69086168154101
 20
-51.76681763303028
 30
0.0
 10
51.09908621035574
 20
-53.35859310421523
 30
0.0
 10
49.13553165766138
 20
-53.35859310421523
 30
0.0
 10
47.1719771049667
 20
-53.35859310421523
 30
0.0
 10
45.58020163378175
 20
-51.76681763303028
 30
0.0
 10
45.58020163378175
 20
-49.8032630803356
 30
0.0
 10
45.58020163378175
 20
-47.83970852764092
 30
0.0
 10
47.1719771049667
 20
-46.24793305645597
 30
0.0
 10
49.13553165766138
 20
-46.24793305645597
 30
0.0
 10
51.09908621035574
 20
-46.24793305645597
 30
0.0
 10
52.69086168154101
 20
-47.83970852764092
 30
0.0
 10
52.69086168154101
 20
-49.8032630803356
 30
0.0
  0
SPLINE
  5
84
330
5E
100
AcDbEntity
  8
Cut
 62
   179
420
  1842203
370
     9
100
AcDbSpline
210
0.0
220
0.0
230
1.0
 70
    11
 71
     3
 72
    17
 73
    13
 74
     0
 42
0.0000000001
 43
0.0000000001
 12
1.0
 22
0.0
 32
0.0
 13
1.0
 23
0.0
 33
0.0
 40
0.0
 40
0.0
 40
0.0
 40
0.0
 40
1.0
 40
1.0
 40
1.0
 40
2.0
 40
2.0
 40
2.0
 40
3.0
 40
3.0
 40
3.0
 40
4.0
 40
4.0
 40
4.0
 40
4.0
 10
48.51940236002161
 20
-39.1124425208062
 30
0.0
 10
48.51940236002161
 20
-41.07599707350088
 30
0.0
 10
46.92762688883666
 20
-42.66777254468583
 30
0.0
 10
44.96407233614198
 20
-42.66777254468583
 30
0.0
 10
43.0005177834473
 20
-42.66777254468583
 30
0.0
 10
41.40874231226235
 20
-41.07599707350088
 30
0.0
 10
41.40874231226235
 20
-39.1124425208062
 30
0.0
 10
41.40874231226235
 20
-37.14888796811152
 30
0.0
 10
43.0005177834473
 20
-35.55711249692657
 30
0.0
 10
44.96407233614198
 20
-35.55711249692657
 30
0.0
 10
46.92762688883666
 20
-35.55711249692657
 30
0.0
 10
48.51940236002161
 20
-37.14888796811152
 30
0.0
 10
48.51940236002161
 20
-39.1124425208062
 30
0.0
  0
SPLINE
  5
85
330
5E
100
AcDbEntity
  8
Cut
 62
   179
420
  1842203
370
     9
100
AcDbSpline
210
0.0
220
0.0
230
1.0
 70
    11
 71
     3
 72
    17
 73
    13
 74
     0
 42
0.0000000001
 43
0.0000000001
 12
1.0
 22
0.0
 32
0.0
 13
1.0
 23
0.0
 33
0.0
 40
0.0
 40
0.0
 40
0.0
 40
0.0
 40
1.0
 40
1.0
 40
1.0
 40
2.0
 40
2.0
 40
2.0
 40
3.0
 40
3.0
 40
3.0
 40
4.0
 40
4.0
 40
4.0
 40
4.0
 10
38.32677868403099
 20
-34.15678306348218
 30
0.0
 10
38.32677868403099
 20
-36.89371820696414
 30
0.0
 10
36.10805437018893
 20
-39.1124425208062
 30
0.0
 10
33.37111922670697
 20
-39.1124425208062
 30
0.0
 10
30.63418408322501
 20
-39.1124425208062
 30
0.0
 10
28.41545976938295
 20
-36.89371820696414
 30
0.0
 10
28.41545976938295
 20
-34.15678306348218
 30
0.0
 10
28.41545976938295
 20
-31.41984792000022
 30
0.0
 10
30.63418408322501
 20
-29.20112360615816
 30
0.0
 10
33.37111922670697
 20
-29.20112360615816
 30
0.0
 10
36.10805437018893
 20
-29.20112360615816
 30
0.0
 10
38.32677868403099
 20
-31.41984792000022
 30
0.0
 10
38.32677868403099
 20
-34.15678306348218
 30
0.0
  0
SPLINE
  5
86
330
5E
100
AcDbEntity
  8
Cut
 62
   179
420
  1842203
370
     9
100
AcDbSpline
210
0.0
220
0.0
230
1.0
 70
    11
 71
     3
 72
    17
 73
    13
 74
     0
 42
0.0000000001
 43
0.0000000001
 12
1.0
 22
0.0
 32
0.0
 13
1.0
 23
0.0
 33
0.0
 40
0.0
 40
0.0
 40
0.0
 40
0.0
 40
1.0
 40
1.0
 40
1.0
 40
2.0
 40
2.0
 40
2.0
 40
3.0
 40
3.0
 40
3.0
 40
4.0
 40
4.0
 40
4.0
 40
4.0
 10
34.36477818264154
 20
72.96652286924399
 30
0.0
 10
35.10251790137924
 20
72.16419889527802
 30
0.0
 10
35.05016201793537
 20
70.9157305974431
 30
0.0
 10
34.24783804396908
 20
70.17799087870507
 30
0.0
 10
33.44551407000279
 20
69.44025115996737
 30
0.0
 10
32.1970457721685
 20
69.49260704341125
 30
0.0
 10
31.45930605343048
 20
70.29493101737755
 30
0.0
 10
30.72156633469246
 20
71.09725499134385
 30
0.0
 10
30.77392221813633
 20
72.34572328917812
 30
0.0
 10
31.57624619210231
 20
73.08346300791614
 30
0.0
 10
32.37857016606861
 20
73.82120272665416
 30
0.0
 10
33.62703846390352
 20
73.76884684321028
 30
0.0
 10
34.36477818264154
 20
72.96652286924399
 30
0.0
  0
SPLINE
  5
87
330
5E
100
AcDbEntity
  8
Cut
 62
   179
420
  1842203
370
     9
100
AcDbSpline
210
0.0
220
0.0
230
1.0
 70
    11
 71
     3
 72
    17
 73
    13
 74
     0
 42
0.0000000001
 43
0.0000000001
 12
1.0
 22
0.0
 32
0.0
 13
1.0
 23
0.0
 33
0.0
 40
0.0
 40
0.0
 40
0.0
 40
0.0
 40
1.0
 40
1.0
 40
1.0
 40
2.0
 40
2.0
 40
2.0
 40
3.0
 40
3.0
 40
3.0
 40
4.0
 40
4.0
 40
4.0
 40
4.0
 10
45.72690061225089
 20
65.28368771593195
 30
0.0
 10
47.05594934387643
 20
63.83828951807289
 30
0.0
 10
46.96162946558177
 20
61.5891558933432
 30
0.0
 10
45.51623126772303
 20
60.26010716171798
 30
0.0
 10
44.07083306986493
 20
58.93105843009245
 30
0.0
 10
41.82169944513493
 20
59.02537830838678
 30
0.0
 10
40.49265071350938
 20
60.47077650624584
 30
0.0
 10
39.16360198188384
 20
61.91617470410426
 30
0.0
 10
39.25792186017851
 20
64.16530832883394
 30
0.0
 10
40.7033200580366
 20
65.49435706045949
 30
0.0
 10
42.14871825589598
 20
66.82340579208534
 30
0.0
 10
44.39785188062535
 20
66.72908591379004
 30
0.0
 10
45.72690061225089
 20
65.28368771593195
 30
0.0
  0
SPLINE
  5
88
330
5E
100
AcDbEntity
  8
Cut
 62
   179
420
  1842203
370
     9
100
AcDbSpline
210
0.0
220
0.0
230
1.0
 70
    11
 71
     3
 72
    17
 73
    13
 74
     0
 42
0.0000000001
 43
0.0000000001
 12
1.0
 22
0.0
 32
0.0
 13
1.0
 23
0.0
 33
0.0
 40
0.0
 40
0.0
 40
0.0
 40
0.0
 40
1.0
 40
1.0
 40
1.0
 40
2.0
 40
2.0
 40
2.0
 40
3.0
 40
3.0
 40
3.0
 40
4.0
 40
4.0
 40
4.0
 40
4.0
 10
57.47283932186645
 20
61.11921677856695
 30
0.0
 10
58.80188805349167
 20
59.67381858070853
 30
0.0
 10
58.70756817519701
 20
57.42468495597852
 30
0.0
 10
57.26216997733827
 20
56.09563622435267
 30
0.0
 10
55.81677177947986
 20
54.76658749272745
 30
0.0
 10
53.56763815474984
 20
54.86090737102243
 30
0.0
 10
52.23858942312431
 20
56.30630556888084
 30
0.0
 10
50.90954069149909
 20
57.75170376673893
 30
0.0
 10
51.00386056979407
 20
60.00083739146927
 30
0.0
 10
52.44925876765217
 20
61.32988612309513
 30
0.0
 10
53.89465696551058
 20
62.65893485472035
 30
0.0
 10
56.14379059024059
 20
62.56461497642569
 30
0.0
 10
57.47283932186645
 20
61.11921677856695
 30
0.0
  0
SPLINE
  5
89
330
5E
100
AcDbEntity
  8
Cut
 62
   179
420
  1842203
370
     9
100
AcDbSpline
210
0.0
220
0.0
230
1.0
 70
    11
 71
     3
 72
    17
 73
    13
 74
     0
 42
0.0000000001
 43
0.0000000001
 12
1.0
 22
0.0
 32
0.0
 13
1.0
 23
0.0
 33
0.0
 40
0.0
 40
0.0
 40
0.0
 40
0.0
 40
1.0
 40
1.0
 40
1.0
 40
2.0
 40
2.0
 40
2.0
 40
3.0
 40
3.0
 40
3.0
 40
4.0
 40
4.0
 40
4.0
 40
4.0
 10
63.16078940029871
 20
46.10480614120807
 30
0.0
 10
64.48983813192457
 20
44.65940794334965
 30
0.0
 10
64.3955182536299
 20
42.41027431861932
 30
0.0
 10
62.95012005577149
 20
41.08122558699378
 30
0.0
 10
61.50472185791276
 20
39.75217685536824
 30
0.0
 10
59.25558823318306
 20
39.84649673366322
 30
0.0
 10
57.92653950155753
 20
41.29189493152196
 30
0.0
 10
56.59749076993199
 20
42.73729312938006
 30
0.0
 10
56.69181064822697
 20
44.98642675411038
 30
0.0
 10
58.13720884608507
 20
46.31547548573592
 30
0.0
 10
59.58260704394348
 20
47.64452421736146
 30
0.0
 10
61.83174066867381
 20
47.55020433906616
 30
0.0
 10
63.16078940029871
 20
46.10480614120807
 30
0.0
  0
SPLINE
  5
8A
330
5E
100
AcDbEntity
  8
Cut
 62
   179
420
  1842203
370
     9
100
AcDbSpline
210
0.0
220
0.0
230
1.0
 70
    11
 71
     3
 72
    17
 73
    13
 74
     0
 42
0.0000000001
 43
0.0000000001
 12
1.0
 22
0.0
 32
0.0
 13
1.0
 23
0.0
 33
0.0
 40
0.0
 40
0.0
 40
0.0
 40
0.0
 40
1.0
 40
1.0
 40
1.0
 40
2.0
 40
2.0
 40
2.0
 40
3.0
 40
3.0
 40
3.0
 40
4.0
 40
4.0
 40
4.0
 40
4.0
 10
82.00424793257216
 20
48.51416730247966
 30
0.0
 10
83.3332966641977
 20
47.06876910462093
 30
0.0
 10
83.23897678590336
 20
44.81963547989091
 30
0.0
 10
81.79357858804462
 20
43.49058674826602
 30
0.0
 10
80.34818039018589
 20
42.16153801664048
 30
0.0
 10
78.0990467654562
 20
42.25585789493482
 30
0.0
 10
76.76999803383066
 20
43.70125609279356
 30
0.0
 10
75.44094930220513
 20
45.14665429065165
 30
0.0
 10
75.53526918049978
 20
47.39578791538166
 30
0.0
 10
76.98066737835852
 20
48.7248366470072
 30
0.0
 10
78.42606557621693
 20
50.05388537863305
 30
0.0
 10
80.67519920094662
 20
49.95956550033808
 30
0.0
 10
82.00424793257216
 20
48.51416730247966
 30
0.0
  0
SPLINE
  5
8B
330
5E
100
AcDbEntity
  8
Cut
 62
   179
420
  1842203
370
     9
100
AcDbSpline
210
0.0
220
0.0
230
1.0
 70
    11
 71
     3
 72
    17
 73
    13
 74
     0
 42
0.0000000001
 43
0.0000000001
 12
1.0
 22
0.0
 32
0.0
 13
1.0
 23
0.0
 33
0.0
 40
0.0
 40
0.0
 40
0.0
 40
0.0
 40
1.0
 40
1.0
 40
1.0
 40
2.0
 40
2.0
 40
2.0
 40
3.0
 40
3.0
 40
3.0
 40
4.0
 40
4.0
 40
4.0
 40
4.0
 10
81.11609085378973
 20
32.18031972787995
 30
0.0
 10
82.44513958541528
 20
30.73492153002122
 30
0.0
 10
82.35081970711997
 20
28.4857879052912
 30
0.0
 10
80.90542150926187
 20
27.15673917366567
 30
0.0
 10
79.46002331140346
 20
25.82769044204045
 30
0.0
 10
77.21088968667377
 20
25.92201032033511
 30
0.0
 10
75.8818409550479
 20
27.36740851819352
 30
0.0
 10
74.55279222342237
 20
28.81280671605194
 30
0.0
 10
74.64711210171703
 20
31.06194034078163
 30
0.0
 10
76.09251029957576
 20
32.39098907240749
 30
0.0
 10
77.53790849743386
 20
33.72003780403303
 30
0.0
 10
79.7870421221642
 20
33.62571792573804
 30
0.0
 10
81.11609085378973
 20
32.18031972787995
 30
0.0
  0
SPLINE
  5
8C
330
5E
100
AcDbEntity
  8
Cut
 62
   179
420
  1842203
370
     9
100
AcDbSpline
210
0.0
220
0.0
230
1.0
 70
    11
 71
     3
 72
    17
 73
    13
 74
     0
 42
0.0000000001
 43
0.0000000001
 12
1.0
 22
0.0
 32
0.0
 13
1.0
 23
0.0
 33
0.0
 40
0.0
 40
0.0
 40
0.0
 40
0.0
 40
1.0
 40
1.0
 40
1.0
 40
2.0
 40
2.0
 40
2.0
 40
3.0
 40
3.0
 40
3.0
 40
4.0
 40
4.0
 40
4.0
 40
4.0
 10
98.92050865093587
 20
32.94153720940708
 30
0.0
 10
100.2495573825614
 20
31.49613901154867
 30
0.0
 10
100.1552375042671
 20
29.24700538681833
 30
0.0
 10
98.70983930640801
 20
27.91795665519312
 30
0.0
 10
97.26444110854993
 20
26.58890792356758
 30
0.0
 10
95.01530748381991
 20
26.68322780186224
 30
0.0
 10
93.68625875219438
 20
28.12862599972097
 30
0.0
 10
92.35721002056884
 20
29.57402419757907
 30
0.0
 10
92.45152989886381
 20
31.8231578223094
 30
0.0
 10
93.89692809672191
 20
33.15220655393494
 30
0.0
 10
95.34232629458097
 20
34.48125528556048
 30
0.0
 10
97.59145991931034
 20
34.38693540726518
 30
0.0
 10
98.92050865093587
 20
32.94153720940708
 30
0.0
  0
SPLINE
  5
8D
330
5E
100
AcDbEntity
  8
Cut
 62
   179
420
  1842203
370
     9
100
AcDbSpline
210
0.0
220
0.0
230
1.0
 70
    11
 71
     3
 72
    17
 73
    13
 74
     0
 42
0.0000000001
 43
0.0000000001
 12
1.0
 22
0.0
 32
0.0
 13
1.0
 23
0.0
 33
0.0
 40
0.0
 40
0.0
 40
0.0
 40
0.0
 40
1.0
 40
1.0
 40
1.0
 40
2.0
 40
2.0
 40
2.0
 40
3.0
 40
3.0
 40
3.0
 40
4.0
 40
4.0
 40
4.0
 40
4.0
 10
107.6241223617332
 20
36.05023027159311
 30
0.0
 10
108.288646727546
 20
35.32753117266358
 30
0.0
 10
108.2414867883983
 20
34.20296436029857
 30
0.0
 10
107.5187876894694
 20
33.53843999448581
 30
0.0
 10
106.7960885905402
 20
32.87391562867336
 30
0.0
 10
105.6715217781749
 20
32.92107556782037
 30
0.0
 10
105.0069974123621
 20
33.64377466675021
 30
0.0
 10
104.34247304655
 20
34.3664737656791
 30
0.0
 10
104.389632985697
 20
35.49104057804379
 30
0.0
 10
105.1123320846262
 20
36.15556494385687
 30
0.0
 10
105.8350311835554
 20
36.82008930966932
 30
0.0
 10
106.9595979959204
 20
36.77292937052199
 30
0.0
 10
107.6241223617332
 20
36.05023027159311
 30
0.0
  0
SPLINE
  5
8E
330
5E
100
AcDbEntity
  8
Cut
 62
   179
420
  1842203
370
     9
100
AcDbSpline
210
0.0
220
0.0
230
1.0
 70
    11
 71
     3
 72
    17
 73
    13
 74
     0
 42
0.0000000001
 43
0.0000000001
 12
1.0
 22
0.0
 32
0.0
 13
1.0
 23
0.0
 33
0.0
 40
0.0
 40
0.0
 40
0.0
 40
0.0
 40
1.0
 40
1.0
 40
1.0
 40
2.0
 40
2.0
 40
2.0
 40
3.0
 40
3.0
 40
3.0
 40
4.0
 40
4.0
 40
4.0
 40
4.0
 10
78.28593914392958
 20
39.687761126518
 30
0.0
 10
78.95046350974202
 20
38.96506202758879
 30
0.0
 10
78.90330357059501
 20
37.84049521522346
 30
0.0
 10
78.18060447166549
 20
37.17597084941102
 30
0.0
 10
77.45790537273628
 20
36.51144648359793
 30
0.0
 10
76.33333856037127
 20
36.55860642274558
 30
0.0
 10
75.66881419455851
 20
37.28130552167479
 30
0.0
 10
75.00428982874574
 20
38.00400462060399
 30
0.0
 10
75.05144976789339
 20
39.128571432969
 30
0.0
 10
75.7741488668226
 20
39.79309579878177
 30
0.0
 10
76.49684796575148
 20
40.45762016459454
 30
0.0
 10
77.6214147781168
 20
40.41046022544721
 30
0.0
 10
78.28593914392958
 20
39.687761126518
 30
0.0
  0
SPLINE
  5
8F
330
5E
100
AcDbEntity
  8
Cut
 62
   179
420
  1842203
370
     9
100
AcDbSpline
210
0.0
220
0.0
230
1.0
 70
    11
 71
     3
 72
    17
 73
    13
 74
     0
 42
0.0000000001
 43
0.0000000001
 12
1.0
 22
0.0
 32
0.0
 13
1.0
 23
0.0
 33
0.0
 40
0.0
 40
0.0
 40
0.0
 40
0.0
 40
1.0
 40
1.0
 40
1.0
 40
2.0
 40
2.0
 40
2.0
 40
3.0
 40
3.0
 40
3.0
 40
4.0
 40
4.0
 40
4.0
 40
4.0
 10
71.69257684590286
 20
32.95735832855389
 30
0.0
 10
72.25978387145757
 20
32.34049606230258
 30
0.0
 10
72.2195303454992
 20
31.38061824668889
 30
0.0
 10
71.6026680792482
 20
30.81341122113513
 30
0.0
 10
70.98580581299689
 20
30.24620419558073
 30
0.0
 10
70.02592799738319
 20
30.28645772153879
 30
0.0
 10
69.45872097182912
 20
30.9033199877901
 30
0.0
 10
68.89151394627504
 20
31.5201822540411
 30
0.0
 10
68.9317674722331
 20
32.48006006965479
 30
0.0
 10
69.54862973848442
 20
33.04726709520887
 30
0.0
 10
70.16549200473541
 20
33.61447412076294
 30
0.0
 10
71.12536982034878
 20
33.57422059480488
 30
0.0
 10
71.69257684590286
 20
32.95735832855389
 30
0.0
  0
SPLINE
  5
90
330
5E
100
AcDbEntity
  8
Cut
 62
   179
420
  1842203
370
     9
100
AcDbSpline
210
0.0
220
0.0
230
1.0
 70
    11
 71
     3
 72
    17
 73
    13
 74
     0
 42
0.0000000001
 43
0.0000000001
 12
1.0
 22
0.0
 32
0.0
 13
1.0
 23
0.0
 33
0.0
 40
0.0
 40
0.0
 40
0.0
 40
0.0
 40
1.0
 40
1.0
 40
1.0
 40
2.0
 40
2.0
 40
2.0
 40
3.0
 40
3.0
 40
3.0
 40
4.0
 40
4.0
 40
4.0
 40
4.0
 10
76.68238234679517
 20
25.28900141340036
 30
0.0
 10
77.24958937234958
 20
24.67213914714905
 30
0.0
 10
77.20933584639151
 20
23.71226133153567
 30
0.0
 10
76.5924735801402
 20
23.14505430598128
 30
0.0
 10
75.97561131388889
 20
22.5778472804272
 30
0.0
 10
75.0157334982752
 20
22.61810080638525
 30
0.0
 10
74.44852647272111
 20
23.23496307263625
 30
0.0
 10
73.88131944716704
 20
23.85182533888724
 30
0.0
 10
73.9215729731251
 20
24.81170315450126
 30
0.0
 10
74.53843523937672
 20
25.37891018005565
 30
0.0
 10
75.15529750562773
 20
25.94611720560941
 30
0.0
 10
76.1151753212411
 20
25.90586367965103
 30
0.0
 10
76.68238234679517
 20
25.28900141340036
 30
0.0
  0
SPLINE
  5
91
330
5E
100
AcDbEntity
  8
Cut
 62
   179
420
  1842203
370
     9
100
AcDbSpline
210
0.0
220
0.0
230
1.0
 70
    11
 71
     3
 72
    17
 73
    13
 74
     0
 42
0.0000000001
 43
0.0000000001
 12
1.0
 22
0.0
 32
0.0
 13
1.0
 23
0.0
 33
0.0
 40
0.0
 40
0.0
 40
0.0
 40
0.0
 40
1.0
 40
1.0
 40
1.0
 40
2.0
 40
2.0
 40
2.0
 40
3.0
 40
3.0
 40
3.0
 40
4.0
 40
4.0
 40
4.0
 40
4.0
 10
68.88093154071838
 20
42.12563001144623
 30
0.0
 10
69.44813856627245
 20
41.50876774519492
 30
0.0
 10
69.40788504031407
 20
40.54888992958122
 30
0.0
 10
68.79102277406308
 20
39.98168290402747
 30
0.0
 10
68.17416050781176
 20
39.41447587847275
 30
0.0
 10
67.2142826921984
 20
39.45472940443113
 30
0.0
 10
66.647075666644
 20
40.07159167068244
 30
0.0
 10
66.07986864108992
 20
40.68845393693343
 30
0.0
 10
66.1201221670483
 20
41.64833175254713
 30
0.0
 10
66.73698443329928
 20
42.21553877810121
 30
0.0
 10
67.3538466995506
 20
42.78274580365528
 30
0.0
 10
68.31372451516398
 20
42.74249227769786
 30
0.0
 10
68.88093154071838
 20
42.12563001144623
 30
0.0
  0
SPLINE
  5
92
330
5E
100
AcDbEntity
  8
Cut
 62
   179
420
  1842203
370
     9
100
AcDbSpline
210
0.0
220
0.0
230
1.0
 70
    11
 71
     3
 72
    17
 73
    13
 74
     0
 42
0.0000000001
 43
0.0000000001
 12
1.0
 22
0.0
 32
0.0
 13
1.0
 23
0.0
 33
0.0
 40
0.0
 40
0.0
 40
0.0
 40
0.0
 40
1.0
 40
1.0
 40
1.0
 40
2.0
 40
2.0
 40
2.0
 40
3.0
 40
3.0
 40
3.0
 40
4.0
 40
4.0
 40
4.0
 40
4.0
 10
64.60367621322581
 20
56.80954288986748
 30
0.0
 10
65.17088323877988
 20
56.19268062361649
 30
0.0
 10
65.1306297128215
 20
55.23280280800279
 30
0.0
 10
64.51376744657115
 20
54.66559578244872
 30
0.0
 10
63.89690518031951
 20
54.09838875689432
 30
0.0
 10
62.93702736470615
 20
54.13864228285237
 30
0.0
 10
62.3698203391511
 20
54.75550454910369
 30
0.0
 10
61.80261331359767
 20
55.37236681535533
 30
0.0
 10
61.84286683955605
 20
56.3322446309687
 30
0.0
 10
62.45972910580672
 20
56.89945165652277
 30
0.0
 10
63.07659137205771
 20
57.46665868207653
 30
0.0
 10
64.03646918767173
 20
57.4264051561188
 30
0.0
 10
64.60367621322581
 20
56.80954288986748
 30
0.0
  0
SPLINE
  5
93
330
5E
100
AcDbEntity
  8
Cut
 62
   179
420
  1842203
370
     9
100
AcDbSpline
210
0.0
220
0.0
230
1.0
 70
    11
 71
     3
 72
    17
 73
    13
 74
     0
 42
0.0000000001
 43
0.0000000001
 12
1.0
 22
0.0
 32
0.0
 13
1.0
 23
0.0
 33
0.0
 40
0.0
 40
0.0
 40
0.0
 40
0.0
 40
1.0
 40
1.0
 40
1.0
 40
2.0
 40
2.0
 40
2.0
 40
3.0
 40
3.0
 40
3.0
 40
4.0
 40
4.0
 40
4.0
 40
4.0
 10
48.14697421994489
 20
57.30380363461804
 30
0.0
 10
48.71418124549928
 20
56.68694136836609
 30
0.0
 10
48.67392771954123
 20
55.72706355275336
 30
0.0
 10
48.05706545329024
 20
55.15985652719928
 30
0.0
 10
47.4402031870386
 20
54.59264950164457
 30
0.0
 10
46.4803253714249
 20
54.63290302760294
 30
0.0
 10
45.91311834587051
 20
55.24976529385425
 30
0.0
 10
45.34591132031675
 20
55.86662756010492
 30
0.0
 10
45.38616484627481
 20
56.82650537571894
 30
0.0
 10
46.00302711252644
 20
57.39371240127366
 30
0.0
 10
46.61988937877679
 20
57.96091942682709
 30
0.0
 10
47.5797671943908
 20
57.92066590086871
 30
0.0
 10
48.14697421994489
 20
57.30380363461804
 30
0.0
  0
SPLINE
  5
94
330
5E
100
AcDbEntity
  8
Cut
 62
   179
420
  1842203
370
     9
100
AcDbSpline
210
0.0
220
0.0
230
1.0
 70
    11
 71
     3
 72
    17
 73
    13
 74
     0
 42
0.0000000001
 43
0.0000000001
 12
1.0
 22
0.0
 32
0.0
 13
1.0
 23
0.0
 33
0.0
 40
0.0
 40
0.0
 40
0.0
 40
0.0
 40
1.0
 40
1.0
 40
1.0
 40
2.0
 40
2.0
 40
2.0
 40
3.0
 40
3.0
 40
3.0
 40
4.0
 40
4.0
 40
4.0
 40
4.0
 10
38.63830972231695
 20
68.90530891538535
 30
0.0
 10
39.20551674787102
 20
68.28844664913436
 30
0.0
 10
39.16526322191265
 20
67.32856883352034
 30
0.0
 10
38.54840095566166
 20
66.76136180796627
 30
0.0
 10
37.93153868941066
 20
66.19415478241218
 30
0.0
 10
36.97166087379696
 20
66.23440830837056
 30
0.0
 10
36.40445384824257
 20
66.85127057462155
 30
0.0
 10
35.83724682268849
 20
67.46813284087287
 30
0.0
 10
35.87750034864687
 20
68.42801065648592
 30
0.0
 10
36.49436261489787
 20
68.99521768204065
 30
0.0
 10
37.11122488114886
 20
69.56242470759472
 30
0.0
 10
38.07110269676255
 20
69.52217118163634
 30
0.0
 10
38.63830972231695
 20
68.90530891538535
 30
0.0
  0
SPLINE
  5
95
330
5E
100
AcDbEntity
  8
Cut
 62
   179
420
  1842203
370
     9
100
AcDbSpline
210
0.0
220
0.0
230
1.0
 70
    11
 71
     3
 72
    17
 73
    13
 74
     0
 42
0.0000000001
 43
0.0000000001
 12
1.0
 22
0.0
 32
0.0
 13
1.0
 23
0.0
 33
0.0
 40
0.0
 40
0.0
 40
0.0
 40
0.0
 40
1.0
 40
1.0
 40
1.0
 40
2.0
 40
2.0
 40
2.0
 40
3.0
 40
3.0
 40
3.0
 40
4.0
 40
4.0
 40
4.0
 40
4.0
 10
94.97603419289976
 20
21.35410808005523
 30
0.0
 10
94.20891711612663
 20
20.74139443496871
 30
0.0
 10
93.09034330597785
 20
20.86656314743826
 30
0.0
 10
92.47762966089101
 20
21.63368022421107
 30
0.0
 10
91.86491601580416
 20
22.40079730098388
 30
0.0
 10
91.99008472827404
 20
23.51937111113362
 30
0.0
 10
92.75720180504685
 20
24.13208475622015
 30
0.0
 10
93.52431888181934
 20
24.74479840130667
 30
0.0
 10
94.64289269196843
 20
24.61962968883712
 30
0.0
 10
95.2556063370556
 20
23.8525126120643
 30
0.0
 10
95.86831998214213
 20
23.08539553529181
 30
0.0
 10
95.74315126967257
 20
21.9668217251424
 30
0.0
 10
94.97603419289976
 20
21.35410808005523
 30
0.0
  0
SPLINE
  5
96
330
5E
100
AcDbEntity
  8
Cut
 62
   179
420
  1842203
370
     9
100
AcDbSpline
210
0.0
220
0.0
230
1.0
 70
    11
 71
     3
 72
    17
 73
    13
 74
     0
 42
0.0000000001
 43
0.0000000001
 12
1.0
 22
0.0
 32
0.0
 13
1.0
 23
0.0
 33
0.0
 40
0.0
 40
0.0
 40
0.0
 40
0.0
 40
1.0
 40
1.0
 40
1.0
 40
2.0
 40
2.0
 40
2.0
 40
3.0
 40
3.0
 40
3.0
 40
4.0
 40
4.0
 40
4.0
 40
4.0
 10
85.2873190907467
 20
21.37588672216105
 30
0.0
 10
85.63184651064864
 20
20.45654593807328
 30
0.0
 10
85.16586821003987
 20
19.43197832259144
 30
0.0
 10
84.24652742595177
 20
19.08745090268886
 30
0.0
 10
83.327186641864
 20
18.7429234827853
 30
0.0
 10
82.30261902638185
 20
19.20890178339505
 30
0.0
 10
81.95809160647893
 20
20.12824256748314
 30
0.0
 10
81.61356418657634
 20
21.0475833515706
 30
0.0
 10
82.07954248718576
 20
22.07215096705211
 30
0.0
 10
82.99888327127354
 20
22.41667838695534
 30
0.0
 10
83.918224055361
 20
22.76120580685825
 30
0.0
 10
84.94279167084348
 20
22.29522750624851
 30
0.0
 10
85.2873190907467
 20
21.37588672216105
 30
0.0
  0
SPLINE
  5
97
330
5E
100
AcDbEntity
  8
Cut
 62
   179
420
  1842203
370
     9
100
AcDbSpline
210
0.0
220
0.0
230
1.0
 70
    11
 71
     3
 72
    17
 73
    13
 74
     0
 42
0.0000000001
 43
0.0000000001
 12
1.0
 22
0.0
 32
0.0
 13
1.0
 23
0.0
 33
0.0
 40
0.0
 40
0.0
 40
0.0
 40
0.0
 40
1.0
 40
1.0
 40
1.0
 40
2.0
 40
2.0
 40
2.0
 40
3.0
 40
3.0
 40
3.0
 40
4.0
 40
4.0
 40
4.0
 40
4.0
 10
85.5172594787551
 20
13.22237006970854
 30
0.0
 10
86.03983486368523
 20
14.05351481487501
 30
0.0
 10
87.13724185702678
 20
14.30365970548319
 30
0.0
 10
87.96838660219325
 20
13.78108432055371
 30
0.0
 10
88.79953134736004
 20
13.25850893562519
 30
0.0
 10
89.0496762379679
 20
12.16110194228268
 30
0.0
 10
88.52710085303907
 20
11.32995719711588
 30
0.0
 10
88.0045254681099
 20
10.49881245194909
 30
0.0
 10
86.90711847476803
 20
10.24866756134155
 30
0.0
 10
86.07597372960092
 20
10.77124294627103
 30
0.0
 10
85.24482898443476
 20
11.29381833119955
 30
0.0
 10
84.9946840938269
 20
12.39122532454174
 30
0.0
 10
85.5172594787551
 20
13.22237006970854
 30
0.0
  0
SPLINE
  5
98
330
5E
100
AcDbEntity
  8
Cut
 62
   179
420
  1842203
370
     9
100
AcDbSpline
210
0.0
220
0.0
230
1.0
 70
    11
 71
     3
 72
    17
 73
    13
 74
     0
 42
0.0000000001
 43
0.0000000001
 12
1.0
 22
0.0
 32
0.0
 13
1.0
 23
0.0
 33
0.0
 40
0.0
 40
0.0
 40
0.0
 40
0.0
 40
1.0
 40
1.0
 40
1.0
 40
2.0
 40
2.0
 40
2.0
 40
3.0
 40
3.0
 40
3.0
 40
4.0
 40
4.0
 40
4.0
 40
4.0
 10
94.4362146467318
 20
8.526532616321129
 30
0.0
 10
94.95879003166161
 20
9.357677361487282
 30
0.0
 10
96.05619702500316
 20
9.607822252095461
 30
0.0
 10
96.88734177016963
 20
9.085246867166301
 30
0.0
 10
97.71848651533675
 20
8.562671482237462
 30
0.0
 10
97.9686314059446
 20
7.465264488895266
 30
0.0
 10
97.44605602101512
 20
6.63411974372783
 30
0.0
 10
96.92348063608628
 20
5.802974998561355
 30
0.0
 10
95.82607364274442
 20
5.552830107953817
 30
0.0
 10
94.9949288975773
 20
6.075405492883298
 30
0.0
 10
94.16378415241083
 20
6.597980877812137
 30
0.0
 10
93.91363926180297
 20
7.695387871154013
 30
0.0
 10
94.4362146467318
 20
8.526532616321129
 30
0.0
  0
SPLINE
  5
99
330
5E
100
AcDbEntity
  8
Cut
 62
   179
420
  1842203
370
     9
100
AcDbSpline
210
0.0
220
0.0
230
1.0
 70
    11
 71
     3
 72
    17
 73
    13
 74
     0
 42
0.0000000001
 43
0.0000000001
 12
1.0
 22
0.0
 32
0.0
 13
1.0
 23
0.0
 33
0.0
 40
0.0
 40
0.0
 40
0.0
 40
0.0
 40
1.0
 40
1.0
 40
1.0
 40
2.0
 40
2.0
 40
2.0
 40
3.0
 40
3.0
 40
3.0
 40
4.0
 40
4.0
 40
4.0
 40
4.0
 10
102.3860188021612
 20
15.15226120865238
 30
0.0
 10
102.908594187091
 20
15.98340595381885
 30
0.0
 10
104.0060011804322
 20
16.23355084442703
 30
0.0
 10
104.837145925599
 20
15.71097545949755
 30
0.0
 10
105.6682906707668
 20
15.18840007456903
 30
0.0
 10
105.9184355613737
 20
14.09099308122652
 30
0.0
 10
105.3958601764445
 20
13.2598483360594
 30
0.0
 10
104.8732847915154
 20
12.42870359089325
 30
0.0
 10
103.7758777981741
 20
12.17855870028539
 30
0.0
 10
102.9447330530067
 20
12.70113408521487
 30
0.0
 10
102.1135883078402
 20
13.22370947014339
 30
0.0
 10
101.8634434172327
 20
14.32111646348558
 30
0.0
 10
102.3860188021612
 20
15.15226120865238
 30
0.0
  0
SPLINE
  5
9A
330
5E
100
AcDbEntity
  8
Cut
 62
   179
420
  1842203
370
     9
100
AcDbSpline
210
0.0
220
0.0
230
1.0
 70
    11
 71
     3
 72
    17
 73
    13
 74
     0
 42
0.0000000001
 43
0.0000000001
 12
1.0
 22
0.0
 32
0.0
 13
1.0
 23
0.0
 33
0.0
 40
0.0
 40
0.0
 40
0.0
 40
0.0
 40
1.0
 40
1.0
 40
1.0
 40
2.0
 40
2.0
 40
2.0
 40
3.0
 40
3.0
 40
3.0
 40
4.0
 40
4.0
 40
4.0
 40
4.0
 10
112.1589563126971
 20
13.18565146963893
 30
0.0
 10
112.6815316976266
 20
14.01679621480541
 30
0.0
 10
113.7789386909685
 20
14.26694110541359
 30
0.0
 10
114.6100834361346
 20
13.7443657204841
 30
0.0
 10
115.4412281813021
 20
13.22179033555559
 30
0.0
 10
115.6913730719096
 20
12.12438334221307
 30
0.0
 10
115.1687976869805
 20
11.29323859704627
 30
0.0
 10
114.6462223020513
 20
10.46209385187948
 30
0.0
 10
113.5488153087097
 20
10.21194896127226
 30
0.0
 10
112.7176705635423
 20
10.73452434620142
 30
0.0
 10
111.8865258183758
 20
11.25709973112994
 30
0.0
 10
111.6363809277683
 20
12.35450672447214
 30
0.0
 10
112.1589563126971
 20
13.18565146963893
 30
0.0
  0
SPLINE
  5
9B
330
5E
100
AcDbEntity
  8
Cut
 62
   179
420
  1842203
370
     9
100
AcDbSpline
210
0.0
220
0.0
230
1.0
 70
    11
 71
     3
 72
    17
 73
    13
 74
     0
 42
0.0000000001
 43
0.0000000001
 12
1.0
 22
0.0
 32
0.0
 13
1.0
 23
0.0
 33
0.0
 40
0.0
 40
0.0
 40
0.0
 40
0.0
 40
1.0
 40
1.0
 40
1.0
 40
2.0
 40
2.0
 40
2.0
 40
3.0
 40
3.0
 40
3.0
 40
4.0
 40
4.0
 40
4.0
 40
4.0
 10
121.7917662353821
 20
17.32549599876096
 30
0.0
 10
122.3143416203112
 20
18.15664074392712
 30
0.0
 10
123.4117486136531
 20
18.4067856345353
 30
0.0
 10
124.2428933588193
 20
17.88421024960581
 30
0.0
 10
125.0740381039867
 20
17.36163486467762
 30
0.0
 10
125.3241829945939
 20
16.26422787133478
 30
0.0
 10
124.8016076096648
 20
15.43308312616798
 30
0.0
 10
124.2790322247359
 20
14.60193838100151
 30
0.0
 10
123.1816252313941
 20
14.35179349039397
 30
0.0
 10
122.3504804862276
 20
14.87436887532313
 30
0.0
 10
121.5193357410605
 20
15.39694426025165
 30
0.0
 10
121.2691908504529
 20
16.49435125359417
 30
0.0
 10
121.7917662353821
 20
17.32549599876096
 30
0.0
  0
SPLINE
  5
9C
330
5E
100
AcDbEntity
  8
Cut
 62
   179
420
  1842203
370
     9
100
AcDbSpline
210
0.0
220
0.0
230
1.0
 70
    11
 71
     3
 72
    17
 73
    13
 74
     0
 42
0.0000000001
 43
0.0000000001
 12
1.0
 22
0.0
 32
0.0
 13
1.0
 23
0.0
 33
0.0
 40
0.0
 40
0.0
 40
0.0
 40
0.0
 40
1.0
 40
1.0
 40
1.0
 40
2.0
 40
2.0
 40
2.0
 40
3.0
 40
3.0
 40
3.0
 40
4.0
 40
4.0
 40
4.0
 40
4.0
 10
113.0809138056706
 20
30.02334762414202
 30
0.0
 10
113.6034891906001
 20
30.85449236930817
 30
0.0
 10
114.700896183942
 20
31.10463725991635
 30
0.0
 10
115.5320409291085
 20
30.58206187498719
 30
0.0
 10
116.3631856742756
 20
30.05948649005835
 30
0.0
 10
116.6133305648835
 20
28.96207949671616
 30
0.0
 10
116.090755179954
 20
28.13093475154904
 30
0.0
 10
115.5681797950251
 20
27.29979000638225
 30
0.0
 10
114.4707728016833
 20
27.04964511577503
 30
0.0
 10
113.6396280565165
 20
27.57222050070419
 30
0.0
 10
112.8084833113493
 20
28.09479588563271
 30
0.0
 10
112.5583384207412
 20
29.1922028789749
 30
0.0
 10
113.0809138056706
 20
30.02334762414202
 30
0.0
  0
SPLINE
  5
9D
330
5E
100
AcDbEntity
  8
Cut
 62
   179
420
  1842203
370
     9
100
AcDbSpline
210
0.0
220
0.0
230
1.0
 70
    11
 71
     3
 72
    17
 73
    13
 74
     0
 42
0.0000000001
 43
0.0000000001
 12
1.0
 22
0.0
 32
0.0
 13
1.0
 23
0.0
 33
0.0
 40
0.0
 40
0.0
 40
0.0
 40
0.0
 40
1.0
 40
1.0
 40
1.0
 40
2.0
 40
2.0
 40
2.0
 40
3.0
 40
3.0
 40
3.0
 40
4.0
 40
4.0
 40
4.0
 40
4.0
 10
96.99003443399705
 20
40.42261392882401
 30
0.0
 10
97.90937521808515
 20
40.76714134872628
 30
0.0
 10
98.93394283356666
 20
40.30116304811717
 30
0.0
 10
99.27847025346956
 20
39.38182226402972
 30
0.0
 10
99.62299767337312
 20
38.46248147994194
 30
0.0
 10
99.15701937276273
 20
37.43791386446011
 30
0.0
 10
98.23767858867528
 20
37.09338644455656
 30
0.0
 10
97.31833780458717
 20
36.74885902465397
 30
0.0
 10
96.29377018910567
 20
37.2148373252634
 30
0.0
 10
95.94924276920275
 20
38.13417810935149
 30
0.0
 10
95.60471534929952
 20
39.05351889343895
 30
0.0
 10
96.07069364990959
 20
40.07808650892046
 30
0.0
 10
96.99003443399705
 20
40.42261392882401
 30
0.0
  0
SPLINE
  5
9E
330
5E
100
AcDbEntity
  8
Cut
 62
   179
420
  1842203
370
     9
100
AcDbSpline
210
0.0
220
0.0
230
1.0
 70
    11
 71
     3
 72
    17
 73
    13
 74
     0
 42
0.0000000001
 43
0.0000000001
 12
1.0
 22
0.0
 32
0.0
 13
1.0
 23
0.0
 33
0.0
 40
0.0
 40
0.0
 40
0.0
 40
0.0
 40
1.0
 40
1.0
 40
1.0
 40
2.0
 40
2.0
 40
2.0
 40
3.0
 40
3.0
 40
3.0
 40
4.0
 40
4.0
 40
4.0
 40
4.0
 10
72.5277551698655
 20
52.72140148051336
 30
0.0
 10
73.44709595395327
 20
53.06592890041627
 30
0.0
 10
74.47166356943511
 20
52.59995059980717
 30
0.0
 10
74.81619098933768
 20
51.68060981571971
 30
0.0
 10
75.16071840924124
 20
50.76126903163194
 30
0.0
 10
74.69474010863118
 20
49.73670141615042
 30
0.0
 10
73.77539932454373
 20
49.39217399624656
 30
0.0
 10
72.85605854045531
 20
49.04764657634428
 30
0.0
 10
71.83149092497412
 20
49.51362487695339
 30
0.0
 10
71.48696350507089
 20
50.43296566104149
 30
0.0
 10
71.14243608516766
 20
51.35230644512894
 30
0.0
 10
71.60841438577803
 20
52.37687406061077
 30
0.0
 10
72.5277551698655
 20
52.72140148051336
 30
0.0
  0
SPLINE
  5
9F
330
5E
100
AcDbEntity
  8
Cut
 62
   179
420
  1842203
370
     9
100
AcDbSpline
210
0.0
220
0.0
230
1.0
 70
    11
 71
     3
 72
    17
 73
    13
 74
     0
 42
0.0000000001
 43
0.0000000001
 12
1.0
 22
0.0
 32
0.0
 13
1.0
 23
0.0
 33
0.0
 40
0.0
 40
0.0
 40
0.0
 40
0.0
 40
1.0
 40
1.0
 40
1.0
 40
2.0
 40
2.0
 40
2.0
 40
3.0
 40
3.0
 40
3.0
 40
4.0
 40
4.0
 40
4.0
 40
4.0
 10
57.24575342470627
 20
52.2821273198757
 30
0.0
 10
58.16509420879437
 20
52.62665473977829
 30
0.0
 10
59.1896618242762
 20
52.16067643916919
 30
0.0
 10
59.53418924417879
 20
51.24133565508173
 30
0.0
 10
59.87871666408202
 20
50.32199487099395
 30
0.0
 10
59.41273836347196
 20
49.29742725551213
 30
0.0
 10
58.49339757938418
 20
48.95289983560858
 30
0.0
 10
57.57405679529673
 20
48.60837241570631
 30
0.0
 10
56.54948917981522
 20
49.07435071631541
 30
0.0
 10
56.20496175991231
 20
49.99369150040351
 30
0.0
 10
55.86043434000876
 20
50.91303228449064
 30
0.0
 10
56.32641264061849
 20
51.93759989997279
 30
0.0
 10
57.24575342470627
 20
52.2821273198757
 30
0.0
  0
SPLINE
  5
A0
330
5E
100
AcDbEntity
  8
Cut
 62
   179
420
  1842203
370
     9
100
AcDbSpline
210
0.0
220
0.0
230
1.0
 70
    11
 71
     3
 72
    17
 73
    13
 74
     0
 42
0.0000000001
 43
0.0000000001
 12
1.0
 22
0.0
 32
0.0
 13
1.0
 23
0.0
 33
0.0
 40
0.0
 40
0.0
 40
0.0
 40
0.0
 40
1.0
 40
1.0
 40
1.0
 40
2.0
 40
2.0
 40
2.0
 40
3.0
 40
3.0
 40
3.0
 40
4.0
 40
4.0
 40
4.0
 40
4.0
 10
51.40903669339305
 20
51.9931834953792
 30
0.0
 10
52.32837747748115
 20
52.33771091528179
 30
0.0
 10
53.35294509296266
 20
51.87173261467237
 30
0.0
 10
53.69747251286525
 20
50.95239183058523
 30
0.0
 10
54.0419999327688
 20
50.03305104649746
 30
0.0
 10
53.57602163215905
 20
49.00848343101563
 30
0.0
 10
52.65668084807128
 20
48.66395601111207
 30
0.0
 10
51.7373400639835
 20
48.31942859120981
 30
0.0
 10
50.71277244850199
 20
48.7854068918189
 30
0.0
 10
50.36824502859908
 20
49.704747675907
 30
0.0
 10
50.02371760869585
 20
50.62408845999446
 30
0.0
 10
50.48969590930559
 20
51.64865607547661
 30
0.0
 10
51.40903669339305
 20
51.9931834953792
 30
0.0
  0
SPLINE
  5
A1
330
5E
100
AcDbEntity
  8
Cut
 62
   179
420
  1842203
370
     9
100
AcDbSpline
210
0.0
220
0.0
230
1.0
 70
    11
 71
     3
 72
    17
 73
    13
 74
     0
 42
0.0000000001
 43
0.0000000001
 12
1.0
 22
0.0
 32
0.0
 13
1.0
 23
0.0
 33
0.0
 40
0.0
 40
0.0
 40
0.0
 40
0.0
 40
1.0
 40
1.0
 40
1.0
 40
2.0
 40
2.0
 40
2.0
 40
3.0
 40
3.0
 40
3.0
 40
4.0
 40
4.0
 40
4.0
 40
4.0
 10
88.91101107368036
 20
34.9038993867671
 30
0.0
 10
89.83035185776814
 20
35.24842680666969
 30
0.0
 10
90.85491947325028
 20
34.78244850606091
 30
0.0
 10
91.1994468931532
 20
33.86310772197314
 30
0.0
 10
91.5439743130561
 20
32.94376693788536
 30
0.0
 10
91.07799601244636
 20
31.91919932240353
 30
0.0
 10
90.15865522835827
 20
31.57467190249998
 30
0.0
 10
89.2393144442708
 20
31.23014448259771
 30
0.0
 10
88.2147468287893
 20
31.69612278320649
 30
0.0
 10
87.87021940888638
 20
32.6154635672949
 30
0.0
 10
87.52569198898316
 20
33.53480435138204
 30
0.0
 10
87.9916702895929
 20
34.55937196686419
 30
0.0
 10
88.91101107368036
 20
34.9038993867671
 30
0.0
  0
SPLINE
  5
A2
330
5E
100
AcDbEntity
  8
Cut
 62
   179
420
  1842203
370
     9
100
AcDbSpline
210
0.0
220
0.0
230
1.0
 70
    11
 71
     3
 72
    17
 73
    13
 74
     0
 42
0.0000000001
 43
0.0000000001
 12
1.0
 22
0.0
 32
0.0
 13
1.0
 23
0.0
 33
0.0
 40
0.0
 40
0.0
 40
0.0
 40
0.0
 40
1.0
 40
1.0
 40
1.0
 40
2.0
 40
2.0
 40
2.0
 40
3.0
 40
3.0
 40
3.0
 40
4.0
 40
4.0
 40
4.0
 40
4.0
 10
83.89295321935772
 20
40.69836469322382
 30
0.0
 10
85.16463932140485
 20
41.17493523077267
 30
0.0
 10
86.58188134935118
 20
40.53036671059428
 30
0.0
 10
87.05845188690098
 20
39.25868060854875
 30
0.0
 10
87.53502242445207
 20
37.98699450650194
 30
0.0
 10
86.89045390427144
 20
36.56975247855434
 30
0.0
 10
85.61876780222494
 20
36.09318194100388
 30
0.0
 10
84.34708170017942
 20
35.61661140345441
 30
0.0
 10
82.92983967223245
 20
36.26117992363375
 30
0.0
 10
82.45326913468264
 20
37.53286602568089
 30
0.0
 10
81.97669859713187
 20
38.80455212772577
 30
0.0
 10
82.62126711731187
 20
40.22179415567338
 30
0.0
 10
83.89295321935772
 20
40.69836469322382
 30
0.0
  0
SPLINE
  5
A3
330
5E
100
AcDbEntity
  8
Cut
 62
   179
420
  1842203
370
     9
100
AcDbSpline
210
0.0
220
0.0
230
1.0
 70
    11
 71
     3
 72
    17
 73
    13
 74
     0
 42
0.0000000001
 43
0.0000000001
 12
1.0
 22
0.0
 32
0.0
 13
1.0
 23
0.0
 33
0.0
 40
0.0
 40
0.0
 40
0.0
 40
0.0
 40
1.0
 40
1.0
 40
1.0
 40
2.0
 40
2.0
 40
2.0
 40
3.0
 40
3.0
 40
3.0
 40
4.0
 40
4.0
 40
4.0
 40
4.0
 10
65.98781360249421
 20
51.800302516548
 30
0.0
 10
67.25949970454072
 20
52.27687305409748
 30
0.0
 10
68.67674173248767
 20
51.63230453391846
 30
0.0
 10
69.15331227003747
 20
50.3606184318726
 30
0.0
 10
69.62988280758857
 20
49.08893232982643
 30
0.0
 10
68.98531428740826
 20
47.67169030187883
 30
0.0
 10
67.71362818536177
 20
47.19511976432838
 30
0.0
 10
66.44194208331591
 20
46.7185492267789
 30
0.0
 10
65.02470005536895
 20
47.36311774695825
 30
0.0
 10
64.54812951781915
 20
48.63480384900506
 30
0.0
 10
64.07155898026838
 20
49.90648995105027
 30
0.0
 10
64.71612750044869
 20
51.32373197899788
 30
0.0
 10
65.98781360249421
 20
51.800302516548
 30
0.0
  0
SPLINE
  5
A4
330
5E
100
AcDbEntity
  8
Cut
 62
   179
420
  1842203
370
     9
100
AcDbSpline
210
0.0
220
0.0
230
1.0
 70
    11
 71
     3
 72
    17
 73
    13
 74
     0
 42
0.0000000001
 43
0.0000000001
 12
1.0
 22
0.0
 32
0.0
 13
1.0
 23
0.0
 33
0.0
 40
0.0
 40
0.0
 40
0.0
 40
0.0
 40
1.0
 40
1.0
 40
1.0
 40
2.0
 40
2.0
 40
2.0
 40
3.0
 40
3.0
 40
3.0
 40
4.0
 40
4.0
 40
4.0
 40
4.0
 10
90.95781544638832
 20
44.27944613242432
 30
0.0
 10
92.22950154843545
 20
44.75601666997348
 30
0.0
 10
93.6467435763821
 20
44.11144814979478
 30
0.0
 10
94.12331411393158
 20
42.83976204774893
 30
0.0
 10
94.59988465148234
 20
41.56807594570275
 30
0.0
 10
93.95531613130235
 20
40.15083391775547
 30
0.0
 10
92.68363002925618
 20
39.6742633802047
 30
0.0
 10
91.41194392721066
 20
39.19769284265522
 30
0.0
 10
89.99470189926305
 20
39.84226136283489
 30
0.0
 10
89.51813136171292
 20
41.11394746488138
 30
0.0
 10
89.04156082416247
 20
42.38563356692659
 30
0.0
 10
89.68612934434279
 20
43.80287559487387
 30
0.0
 10
90.95781544638832
 20
44.27944613242432
 30
0.0
  0
SPLINE
  5
A5
330
5E
100
AcDbEntity
  8
Cut
 62
   179
420
  1842203
370
     9
100
AcDbSpline
210
0.0
220
0.0
230
1.0
 70
    11
 71
     3
 72
    17
 73
    13
 74
     0
 42
0.0000000001
 43
0.0000000001
 12
1.0
 22
0.0
 32
0.0
 13
1.0
 23
0.0
 33
0.0
 40
0.0
 40
0.0
 40
0.0
 40
0.0
 40
1.0
 40
1.0
 40
1.0
 40
2.0
 40
2.0
 40
2.0
 40
3.0
 40
3.0
 40
3.0
 40
4.0
 40
4.0
 40
4.0
 40
4.0
 10
100.4406246483857
 20
24.57525680672013
 30
0.0
 10
101.7123107504322
 20
25.05182734426897
 30
0.0
 10
103.1295527783795
 20
24.40725882409027
 30
0.0
 10
103.606123315929
 20
23.13557272204506
 30
0.0
 10
104.0826938534798
 20
21.86388661999857
 30
0.0
 10
103.4381253332998
 20
20.44664459205096
 30
0.0
 10
102.1664392312536
 20
19.97007405450019
 30
0.0
 10
100.8947531292074
 20
19.49350351695103
 30
0.0
 10
99.47751110126046
 20
20.13807203713006
 30
0.0
 10
99.00094056371002
 20
21.40975813917719
 30
0.0
 10
98.52437002615989
 20
22.68144424122208
 30
0.0
 10
99.16893854633956
 20
24.09868626917001
 30
0.0
 10
100.4406246483857
 20
24.57525680672013
 30
0.0
  0
SPLINE
  5
A6
330
5E
100
AcDbEntity
  8
Cut
 62
   179
420
  1842203
370
     9
100
AcDbSpline
210
0.0
220
0.0
230
1.0
 70
    11
 71
     3
 72
    17
 73
    13
 74
     0
 42
0.0000000001
 43
0.0000000001
 12
1.0
 22
0.0
 32
0.0
 13
1.0
 23
0.0
 33
0.0
 40
0.0
 40
0.0
 40
0.0
 40
0.0
 40
1.0
 40
1.0
 40
1.0
 40
2.0
 40
2.0
 40
2.0
 40
3.0
 40
3.0
 40
3.0
 40
4.0
 40
4.0
 40
4.0
 40
4.0
 10
96.80573678031561
 20
16.92033083170175
 30
0.0
 10
98.13478551194179
 20
15.47493263384334
 30
0.0
 10
98.04046563364649
 20
13.22579900911365
 30
0.0
 10
96.59506743578872
 20
11.89675027748811
 30
0.0
 10
95.14966923792966
 20
10.56770154586225
 30
0.0
 10
92.90053561319965
 20
10.66202142415723
 30
0.0
 10
91.5714868815741
 20
12.10741962201565
 30
0.0
 10
90.2424381499489
 20
13.55281781987438
 30
0.0
 10
90.33675802824322
 20
15.80195144460408
 30
0.0
 10
91.78215622610229
 20
17.13100017622961
 30
0.0
 10
93.22755442396038
 20
18.46004890785515
 30
0.0
 10
95.47668804869039
 20
18.36572902956049
 30
0.0
 10
96.80573678031561
 20
16.92033083170175
 30
0.0
  0
SPLINE
  5
A7
330
5E
100
AcDbEntity
  8
Cut
 62
   179
420
  1842203
370
     9
100
AcDbSpline
210
0.0
220
0.0
230
1.0
 70
    11
 71
     3
 72
    17
 73
    13
 74
     0
 42
0.0000000001
 43
0.0000000001
 12
1.0
 22
0.0
 32
0.0
 13
1.0
 23
0.0
 33
0.0
 40
0.0
 40
0.0
 40
0.0
 40
0.0
 40
1.0
 40
1.0
 40
1.0
 40
2.0
 40
2.0
 40
2.0
 40
3.0
 40
3.0
 40
3.0
 40
4.0
 40
4.0
 40
4.0
 40
4.0
 10
135.3444690478681
 20
21.87214741771461
 30
0.0
 10
136.6735177794934
 20
20.42674921985619
 30
0.0
 10
136.5791979011987
 20
18.1776155951265
 30
0.0
 10
135.1337997033399
 20
16.84856686350064
 30
0.0
 10
133.6884015054819
 20
15.51951813187511
 30
0.0
 10
131.4392678807515
 20
15.61383801017009
 30
0.0
 10
130.110219149126
 20
17.05923620802818
 30
0.0
 10
128.7811704175008
 20
18.50463440588692
 30
0.0
 10
128.8754902957957
 20
20.75376803061661
 30
0.0
 10
130.3208884936539
 20
22.08281676224215
 30
0.0
 10
131.7662866915123
 20
23.41186549386768
 30
0.0
 10
134.0154203162426
 20
23.31754561557334
 30
0.0
 10
135.3444690478681
 20
21.87214741771461
 30
0.0
  0
SPLINE
  5
A8
330
5E
100
AcDbEntity
  8
Cut
 62
   179
420
  1842203
370
     9
100
AcDbSpline
210
0.0
220
0.0
230
1.0
 70
    11
 71
     3
 72
    17
 73
    13
 74
     0
 42
0.0000000001
 43
0.0000000001
 12
1.0
 22
0.0
 32
0.0
 13
1.0
 23
0.0
 33
0.0
 40
0.0
 40
0.0
 40
0.0
 40
0.0
 40
1.0
 40
1.0
 40
1.0
 40
2.0
 40
2.0
 40
2.0
 40
3.0
 40
3.0
 40
3.0
 40
4.0
 40
4.0
 40
4.0
 40
4.0
 10
125.0376297178024
 20
26.91831231111264
 30
0.0
 10
126.3666784494279
 20
25.47291411325422
 30
0.0
 10
126.2723585711336
 20
23.22378048852421
 30
0.0
 10
124.8269603732745
 20
21.89473175689867
 30
0.0
 10
123.3815621754161
 20
20.56568302527313
 30
0.0
 10
121.1324285506864
 20
20.66000290356779
 30
0.0
 10
119.8033798190609
 20
22.10540110142653
 30
0.0
 10
118.4743310874353
 20
23.55079929928495
 30
0.0
 10
118.5686509657303
 20
25.79993292401496
 30
0.0
 10
120.0140491635884
 20
27.12898165564049
 30
0.0
 10
121.4594473614472
 20
28.45803038726604
 30
0.0
 10
123.7085809861772
 20
28.36371050897105
 30
0.0
 10
125.0376297178024
 20
26.91831231111264
 30
0.0
  0
SPLINE
  5
A9
330
5E
100
AcDbEntity
  8
Cut
 62
   179
420
  1842203
370
     9
100
AcDbSpline
210
0.0
220
0.0
230
1.0
 70
    11
 71
     3
 72
    17
 73
    13
 74
     0
 42
0.0000000001
 43
0.0000000001
 12
1.0
 22
0.0
 32
0.0
 13
1.0
 23
0.0
 33
0.0
 40
0.0
 40
0.0
 40
0.0
 40
0.0
 40
1.0
 40
1.0
 40
1.0
 40
2.0
 40
2.0
 40
2.0
 40
3.0
 40
3.0
 40
3.0
 40
4.0
 40
4.0
 40
4.0
 40
4.0
 10
114.180425480928
 20
23.66727336700271
 30
0.0
 10
116.0329434952574
 20
21.65257959716795
 30
0.0
 10
115.9014740694246
 20
18.51758502751761
 30
0.0
 10
113.8867802995901
 20
16.66506701318752
 30
0.0
 10
111.8720865297557
 20
14.81254899885806
 30
0.0
 10
108.737091960105
 20
14.94401842469059
 30
0.0
 10
106.8845739457752
 20
16.95871219452503
 30
0.0
 10
105.0320559314455
 20
18.97340596436011
 30
0.0
 10
105.163525357278
 20
22.10840053401045
 30
0.0
 10
107.1782191271124
 20
23.96091854834055
 30
0.0
 10
109.1929128969469
 20
25.81343656267001
 30
0.0
 10
112.3279074665982
 20
25.68196713683748
 30
0.0
 10
114.180425480928
 20
23.66727336700271
 30
0.0
  0
SPLINE
  5
AA
330
5E
100
AcDbEntity
  8
Cut
 62
   179
420
  1842203
370
     9
100
AcDbSpline
210
0.0
220
0.0
230
1.0
 70
    11
 71
     3
 72
    17
 73
    13
 74
     0
 42
0.0000000001
 43
0.0000000001
 12
1.0
 22
0.0
 32
0.0
 13
1.0
 23
0.0
 33
0.0
 40
0.0
 40
0.0
 40
0.0
 40
0.0
 40
1.0
 40
1.0
 40
1.0
 40
2.0
 40
2.0
 40
2.0
 40
3.0
 40
3.0
 40
3.0
 40
4.0
 40
4.0
 40
4.0
 40
4.0
 10
22.1029644456377
 20
59.30946711033498
 30
0.0
 10
22.83786831184968
 20
58.50454477915655
 30
0.0
 10
24.08614408169366
 20
58.44778359831195
 30
0.0
 10
24.89106641287273
 20
59.18268746452425
 30
0.0
 10
25.69598874405115
 20
59.91759133073687
 30
0.0
 10
25.75274992489608
 20
61.16586710058021
 30
0.0
 10
25.01784605868346
 20
61.97078943175863
 30
0.0
 10
24.28294219247084
 20
62.7757117629377
 30
0.0
 10
23.03466642262782
 20
62.83247294378231
 30
0.0
 10
22.22974409144875
 20
62.09756907757033
 30
0.0
 10
21.42482176026968
 20
61.36266521135803
 30
0.0
 10
21.36806057942508
 20
60.11438944151373
 30
0.0
 10
22.1029644456377
 20
59.30946711033498
 30
0.0
  0
SPLINE
  5
AB
330
5E
100
AcDbEntity
  8
Cut
 62
   179
420
  1842203
370
     9
100
AcDbSpline
210
0.0
220
0.0
230
1.0
 70
    11
 71
     3
 72
    17
 73
    13
 74
     0
 42
0.0000000001
 43
0.0000000001
 12
1.0
 22
0.0
 32
0.0
 13
1.0
 23
0.0
 33
0.0
 40
0.0
 40
0.0
 40
0.0
 40
0.0
 40
1.0
 40
1.0
 40
1.0
 40
2.0
 40
2.0
 40
2.0
 40
3.0
 40
3.0
 40
3.0
 40
4.0
 40
4.0
 40
4.0
 40
4.0
 10
28.76526555453706
 20
47.32040851373318
 30
0.0
 10
30.0892054569833
 20
45.87032933792222
 30
0.0
 10
32.33799223976364
 20
45.76807325289534
 30
0.0
 10
33.78807141557395
 20
47.09201315534158
 30
0.0
 10
35.23815059138426
 20
48.41595305778718
 30
0.0
 10
35.34040667641179
 20
50.6647398405672
 30
0.0
 10
34.01646677396523
 20
52.11481901637784
 30
0.0
 10
32.69252687151995
 20
53.56489819218911
 30
0.0
 10
30.44374008873961
 20
53.66715427721535
 30
0.0
 10
28.99366091292865
 20
52.34321437476975
 30
0.0
 10
27.54358173711802
 20
51.01927447232351
 30
0.0
 10
27.44132565209146
 20
48.77048768954381
 30
0.0
 10
28.76526555453706
 20
47.32040851373318
 30
0.0
  0
SPLINE
  5
AC
330
5E
100
AcDbEntity
  8
Cut
 62
   179
420
  1842203
370
     9
100
AcDbSpline
210
0.0
220
0.0
230
1.0
 70
    11
 71
     3
 72
    17
 73
    13
 74
     0
 42
0.0000000001
 43
0.0000000001
 12
1.0
 22
0.0
 32
0.0
 13
1.0
 23
0.0
 33
0.0
 40
0.0
 40
0.0
 40
0.0
 40
0.0
 40
1.0
 40
1.0
 40
1.0
 40
2.0
 40
2.0
 40
2.0
 40
3.0
 40
3.0
 40
3.0
 40
4.0
 40
4.0
 40
4.0
 40
4.0
 10
31.88913263685669
 20
35.2559421430143
 30
0.0
 10
33.21307253930261
 20
33.80586296720399
 30
0.0
 10
35.46185932208327
 20
33.70360688217679
 30
0.0
 10
36.91193849789359
 20
35.02754678462303
 30
0.0
 10
38.36201767370422
 20
36.3514866870683
 30
0.0
 10
38.46427375873046
 20
38.60027346984928
 30
0.0
 10
37.14033385628486
 20
40.05035264565992
 30
0.0
 10
35.81639395383926
 20
41.50043182147024
 30
0.0
 10
33.5676071710586
 20
41.60268790649712
 30
0.0
 10
32.11752799524829
 20
40.27874800405183
 30
0.0
 10
30.66744881943733
 20
38.9548081016056
 30
0.0
 10
30.56519273441077
 20
36.70602131882526
 30
0.0
 10
31.88913263685669
 20
35.2559421430143
 30
0.0
  0
SPLINE
  5
AD
330
5E
100
AcDbEntity
  8
Cut
 62
   179
420
  1842203
370
     9
100
AcDbSpline
210
0.0
220
0.0
230
1.0
 70
    11
 71
     3
 72
    17
 73
    13
 74
     0
 42
0.0000000001
 43
0.0000000001
 12
1.0
 22
0.0
 32
0.0
 13
1.0
 23
0.0
 33
0.0
 40
0.0
 40
0.0
 40
0.0
 40
0.0
 40
1.0
 40
1.0
 40
1.0
 40
2.0
 40
2.0
 40
2.0
 40
3.0
 40
3.0
 40
3.0
 40
4.0
 40
4.0
 40
4.0
 40
4.0
 10
46.35007540880432
 20
28.27980875635714
 30
0.0
 10
47.67401531125024
 20
26.82972958054683
 30
0.0
 10
49.92280209403058
 20
26.72747349551963
 30
0.0
 10
51.37288126984153
 20
28.05141339796522
 30
0.0
 10
52.82296044565184
 20
29.37535330041147
 30
0.0
 10
52.92521653067872
 20
31.62414008319148
 30
0.0
 10
51.60127662823248
 20
33.07421925900244
 30
0.0
 10
50.27733672578721
 20
34.52429843481307
 30
0.0
 10
48.02854994300623
 20
34.62655451983996
 30
0.0
 10
46.57847076719591
 20
33.30261461739403
 30
0.0
 10
45.12839159138528
 20
31.97867471494844
 30
0.0
 10
45.02613550635904
 20
29.72988793216745
 30
0.0
 10
46.35007540880432
 20
28.27980875635714
 30
0.0
  0
SPLINE
  5
AE
330
5E
100
AcDbEntity
  8
Cut
 62
   179
420
  1842203
370
     9
100
AcDbSpline
210
0.0
220
0.0
230
1.0
 70
    11
 71
     3
 72
    17
 73
    13
 74
     0
 42
0.0000000001
 43
0.0000000001
 12
1.0
 22
0.0
 32
0.0
 13
1.0
 23
0.0
 33
0.0
 40
0.0
 40
0.0
 40
0.0
 40
0.0
 40
1.0
 40
1.0
 40
1.0
 40
2.0
 40
2.0
 40
2.0
 40
3.0
 40
3.0
 40
3.0
 40
4.0
 40
4.0
 40
4.0
 40
4.0
 10
42.3059810725266
 20
9.718390392928583
 30
0.0
 10
43.6299209749722
 20
8.268311217117628
 30
0.0
 10
45.87870775775318
 20
8.166055132091067
 30
0.0
 10
47.32878693356317
 20
9.489995034536665
 30
0.0
 10
48.77886610937349
 20
10.81393493698291
 30
0.0
 10
48.88112219440069
 20
13.06272171976292
 30
0.0
 10
47.55718229195445
 20
14.51280089557388
 30
0.0
 10
46.23324238950917
 20
15.96288007138419
 30
0.0
 10
43.98445560672883
 20
16.06513615641139
 30
0.0
 10
42.53437643091788
 20
14.74119625396516
 30
0.0
 10
41.08429725510724
 20
13.41725635151956
 30
0.0
 10
40.98204117008036
 20
11.16846956873922
 30
0.0
 10
42.3059810725266
 20
9.718390392928583
 30
0.0
  0
SPLINE
  5
AF
330
5E
100
AcDbEntity
  8
Cut
 62
   179
420
  1842203
370
     9
100
AcDbSpline
210
0.0
220
0.0
230
1.0
 70
    11
 71
     3
 72
    17
 73
    13
 74
     0
 42
0.0000000001
 43
0.0000000001
 12
1.0
 22
0.0
 32
0.0
 13
1.0
 23
0.0
 33
0.0
 40
0.0
 40
0.0
 40
0.0
 40
0.0
 40
1.0
 40
1.0
 40
1.0
 40
2.0
 40
2.0
 40
2.0
 40
3.0
 40
3.0
 40
3.0
 40
4.0
 40
4.0
 40
4.0
 40
4.0
 10
58.65503532009853
 20
9.17818228785662
 30
0.0
 10
59.97897522254478
 20
7.728103112045987
 30
0.0
 10
62.22776200532512
 20
7.625847027019746
 30
0.0
 10
63.67784118113575
 20
8.949786929465024
 30
0.0
 10
65.12792035694606
 20
10.27372683191094
 30
0.0
 10
65.23017644197294
 20
12.52251361469128
 30
0.0
 10
63.90623653952735
 20
13.97259279050192
 30
0.0
 10
62.58229663708143
 20
15.42267196631255
 30
0.0
 10
60.3335098543014
 20
15.52492805133943
 30
0.0
 10
58.88343067849046
 20
14.20098814889319
 30
0.0
 10
57.4333515026795
 20
12.87704824644792
 30
0.0
 10
57.33109541765326
 20
10.62826146366725
 30
0.0
 10
58.65503532009853
 20
9.17818228785662
 30
0.0
  0
SPLINE
  5
B0
330
5E
100
AcDbEntity
  8
Cut
 62
   179
420
  1842203
370
     9
100
AcDbSpline
210
0.0
220
0.0
230
1.0
 70
    11
 71
     3
 72
    17
 73
    13
 74
     0
 42
0.0000000001
 43
0.0000000001
 12
1.0
 22
0.0
 32
0.0
 13
1.0
 23
0.0
 33
0.0
 40
0.0
 40
0.0
 40
0.0
 40
0.0
 40
1.0
 40
1.0
 40
1.0
 40
2.0
 40
2.0
 40
2.0
 40
3.0
 40
3.0
 40
3.0
 40
4.0
 40
4.0
 40
4.0
 40
4.0
 10
56.34344750450288
 20
-8.491942412334625
 30
0.0
 10
57.66738740694881
 20
-9.942021588145257
 30
0.0
 10
59.91617418972947
 20
-10.04427767317246
 30
0.0
 10
61.3662533655401
 20
-8.720337770726221
 30
0.0
 10
62.81633254135073
 20
-7.396397868280622
 30
0.0
 10
62.91858862637794
 20
-5.147611085500282
 30
0.0
 10
61.59464872393138
 20
-3.697531909689648
 30
0.0
 10
60.2707088214861
 20
-2.247452733878693
 30
0.0
 10
58.02192203870511
 20
-2.145196648852453
 30
0.0
 10
56.57184286289448
 20
-3.46913655129773
 30
0.0
 10
55.12176368708417
 20
-4.793076453744291
 30
0.0
 10
55.01950760205761
 20
-7.041863236523991
 30
0.0
 10
56.34344750450288
 20
-8.491942412334625
 30
0.0
  0
SPLINE
  5
B1
330
5E
100
AcDbEntity
  8
Cut
 62
   179
420
  1842203
370
     9
100
AcDbSpline
210
0.0
220
0.0
230
1.0
 70
    11
 71
     3
 72
    17
 73
    13
 74
     0
 42
0.0000000001
 43
0.0000000001
 12
1.0
 22
0.0
 32
0.0
 13
1.0
 23
0.0
 33
0.0
 40
0.0
 40
0.0
 40
0.0
 40
0.0
 40
1.0
 40
1.0
 40
1.0
 40
2.0
 40
2.0
 40
2.0
 40
3.0
 40
3.0
 40
3.0
 40
4.0
 40
4.0
 40
4.0
 40
4.0
 10
52.48729639891288
 20
-16.89116635461179
 30
0.0
 10
53.14926635013617
 20
-17.61620594251695
 30
0.0
 10
54.27365974152649
 20
-17.66733398503007
 30
0.0
 10
54.99869932943197
 20
-17.00536403380743
 30
0.0
 10
55.72373891733681
 20
-16.34339408258447
 30
0.0
 10
55.77486695985057
 20
-15.21900069119414
 30
0.0
 10
55.11289700862697
 20
-14.49396110328866
 30
0.0
 10
54.45092705740433
 20
-13.76892151538415
 30
0.0
 10
53.32653366601464
 20
-13.71779347287039
 30
0.0
 10
52.60149407810948
 20
-14.37976342409303
 30
0.0
 10
51.876454490204
 20
-15.04173337531599
 30
0.0
 10
51.82532644769088
 20
-16.16612676670632
 30
0.0
 10
52.48729639891288
 20
-16.89116635461179
 30
0.0
  0
SPLINE
  5
B2
330
5E
100
AcDbEntity
  8
Cut
 62
   179
420
  1842203
370
     9
100
AcDbSpline
210
0.0
220
0.0
230
1.0
 70
    11
 71
     3
 72
    17
 73
    13
 74
     0
 42
0.0000000001
 43
0.0000000001
 12
1.0
 22
0.0
 32
0.0
 13
1.0
 23
0.0
 33
0.0
 40
0.0
 40
0.0
 40
0.0
 40
0.0
 40
1.0
 40
1.0
 40
1.0
 40
2.0
 40
2.0
 40
2.0
 40
3.0
 40
3.0
 40
3.0
 40
4.0
 40
4.0
 40
4.0
 40
4.0
 10
51.42312279518054
 20
12.65249895257516
 30
0.0
 10
52.08509274640318
 20
11.92745936466969
 30
0.0
 10
53.20948613779383
 20
11.87633132215625
 30
0.0
 10
53.93452572569866
 20
12.53830127337953
 30
0.0
 10
54.65956531360446
 20
13.20027122460249
 30
0.0
 10
54.71069335611758
 20
14.3246646159925
 30
0.0
 10
54.04872340489494
 20
15.04970420389765
 30
0.0
 10
53.38675345367199
 20
15.77474379180313
 30
0.0
 10
52.26236006228166
 20
15.82587183431657
 30
0.0
 10
51.5373204743765
 20
15.16390188309361
 30
0.0
 10
50.81228088647102
 20
14.50193193187097
 30
0.0
 10
50.7611528439579
 20
13.37753854048032
 30
0.0
 10
51.42312279518054
 20
12.65249895257516
 30
0.0
  0
SPLINE
  5
B3
330
5E
100
AcDbEntity
  8
Cut
 62
   179
420
  1842203
370
     9
100
AcDbSpline
210
0.0
220
0.0
230
1.0
 70
    11
 71
     3
 72
    17
 73
    13
 74
     0
 42
0.0000000001
 43
0.0000000001
 12
1.0
 22
0.0
 32
0.0
 13
1.0
 23
0.0
 33
0.0
 40
0.0
 40
0.0
 40
0.0
 40
0.0
 40
1.0
 40
1.0
 40
1.0
 40
2.0
 40
2.0
 40
2.0
 40
3.0
 40
3.0
 40
3.0
 40
4.0
 40
4.0
 40
4.0
 40
4.0
 10
58.7030748133129
 20
18.63355628632277
 30
0.0
 10
59.26810150963271
 20
18.01469628776963
 30
0.0
 10
60.2278313011854
 20
17.97105577372983
 30
0.0
 10
60.84669129973726
 20
18.53608247004964
 30
0.0
 10
61.46555129828943
 20
19.10110916636977
 30
0.0
 10
61.50919181233021
 20
20.06083895792279
 30
0.0
 10
60.94416511601008
 20
20.67969895647464
 30
0.0
 10
60.37913841968994
 20
21.29855895502682
 30
0.0
 10
59.41940862813725
 20
21.34219946906759
 30
0.0
 10
58.80054862958507
 20
20.77717277274682
 30
0.0
 10
58.1816886310329
 20
20.212146076427
 30
0.0
 10
58.13804811699244
 20
19.25241628487495
 30
0.0
 10
58.7030748133129
 20
18.63355628632277
 30
0.0
  0
SPLINE
  5
B4
330
5E
100
AcDbEntity
  8
Cut
 62
   179
420
  1842203
370
     9
100
AcDbSpline
210
0.0
220
0.0
230
1.0
 70
    11
 71
     3
 72
    17
 73
    13
 74
     0
 42
0.0000000001
 43
0.0000000001
 12
1.0
 22
0.0
 32
0.0
 13
1.0
 23
0.0
 33
0.0
 40
0.0
 40
0.0
 40
0.0
 40
0.0
 40
1.0
 40
1.0
 40
1.0
 40
2.0
 40
2.0
 40
2.0
 40
3.0
 40
3.0
 40
3.0
 40
4.0
 40
4.0
 40
4.0
 40
4.0
 10
65.90687927614381
 20
12.99378164754419
 30
0.0
 10
66.47190597246427
 20
12.37492164899138
 30
0.0
 10
67.43163576401632
 20
12.33128113495125
 30
0.0
 10
68.05049576256881
 20
12.89630783127138
 30
0.0
 10
68.669355761121
 20
13.46133452759151
 30
0.0
 10
68.71299627516144
 20
14.42106431914453
 30
0.0
 10
68.14796957884164
 20
15.0399243176967
 30
0.0
 10
67.58294288252182
 20
15.65878431624856
 30
0.0
 10
66.62321309096849
 20
15.70242483028933
 30
0.0
 10
66.00435309241631
 20
15.13739813396856
 30
0.0
 10
65.38549309386445
 20
14.57237143764843
 30
0.0
 10
65.341852579824
 20
13.61264164609637
 30
0.0
 10
65.90687927614381
 20
12.99378164754419
 30
0.0
  0
SPLINE
  5
B5
330
5E
100
AcDbEntity
  8
Cut
 62
   179
420
  1842203
370
     9
100
AcDbSpline
210
0.0
220
0.0
230
1.0
 70
    11
 71
     3
 72
    17
 73
    13
 74
     0
 42
0.0000000001
 43
0.0000000001
 12
1.0
 22
0.0
 32
0.0
 13
1.0
 23
0.0
 33
0.0
 40
0.0
 40
0.0
 40
0.0
 40
0.0
 40
1.0
 40
1.0
 40
1.0
 40
2.0
 40
2.0
 40
2.0
 40
3.0
 40
3.0
 40
3.0
 40
4.0
 40
4.0
 40
4.0
 40
4.0
 10
49.81504982370182
 20
22.23432936408617
 30
0.0
 10
50.38007652002194
 20
21.61546936553399
 30
0.0
 10
51.33980631157497
 20
21.57182885149386
 30
0.0
 10
51.9586663101265
 20
22.13685554781399
 30
0.0
 10
52.57752630867932
 20
22.70188224413413
 30
0.0
 10
52.62116682271976
 20
23.6616120356865
 30
0.0
 10
52.05614012639899
 20
24.280472034239
 30
0.0
 10
51.49111343007918
 20
24.89933203279085
 30
0.0
 10
50.5313836385268
 20
24.9429725468313
 30
0.0
 10
49.91252363997463
 20
24.37794585051149
 30
0.0
 10
49.29366364142214
 20
23.81291915419104
 30
0.0
 10
49.25002312738169
 20
22.85318936263867
 30
0.0
 10
49.81504982370182
 20
22.23432936408617
 30
0.0
  0
SPLINE
  5
B6
330
5E
100
AcDbEntity
  8
Cut
 62
   179
420
  1842203
370
     9
100
AcDbSpline
210
0.0
220
0.0
230
1.0
 70
    11
 71
     3
 72
    17
 73
    13
 74
     0
 42
0.0000000001
 43
0.0000000001
 12
1.0
 22
0.0
 32
0.0
 13
1.0
 23
0.0
 33
0.0
 40
0.0
 40
0.0
 40
0.0
 40
0.0
 40
1.0
 40
1.0
 40
1.0
 40
2.0
 40
2.0
 40
2.0
 40
3.0
 40
3.0
 40
3.0
 40
4.0
 40
4.0
 40
4.0
 40
4.0
 10
35.56027448557842
 20
27.77631372144978
 30
0.0
 10
36.12530118189855
 20
27.15745372289793
 30
0.0
 10
37.08503097345125
 20
27.1138132088578
 30
0.0
 10
37.70389097200374
 20
27.67883990517697
 30
0.0
 10
38.32275097055592
 20
28.24386660149774
 30
0.0
 10
38.36639148459637
 20
29.2035963930498
 30
0.0
 10
37.80136478827624
 20
29.82245639160293
 30
0.0
 10
37.23633809195547
 20
30.44131639015479
 30
0.0
 10
36.27660830040309
 20
30.4849569041946
 30
0.0
 10
35.65774830185059
 20
29.91993020787511
 30
0.0
 10
35.03888830329938
 20
29.35490351155498
 30
0.0
 10
34.99524778925829
 20
28.39517372000196
 30
0.0
 10
35.56027448557842
 20
27.77631372144978
 30
0.0
  0
SPLINE
  5
B7
330
5E
100
AcDbEntity
  8
Cut
 62
   179
420
  1842203
370
     9
100
AcDbSpline
210
0.0
220
0.0
230
1.0
 70
    11
 71
     3
 72
    17
 73
    13
 74
     0
 42
0.0000000001
 43
0.0000000001
 12
1.0
 22
0.0
 32
0.0
 13
1.0
 23
0.0
 33
0.0
 40
0.0
 40
0.0
 40
0.0
 40
0.0
 40
1.0
 40
1.0
 40
1.0
 40
2.0
 40
2.0
 40
2.0
 40
3.0
 40
3.0
 40
3.0
 40
4.0
 40
4.0
 40
4.0
 40
4.0
 10
36.50359502038137
 20
44.21339012049614
 30
0.0
 10
37.06862171670182
 20
43.59453012194364
 30
0.0
 10
38.02835150825356
 20
43.55088960790351
 30
0.0
 10
38.64721150680605
 20
44.115916304223
 30
0.0
 10
39.26607150535887
 20
44.68094300054377
 30
0.0
 10
39.30971201939868
 20
45.64067279209647
 30
0.0
 10
38.74468532307855
 20
46.25953279064897
 30
0.0
 10
38.17965862675906
 20
46.8783927892005
 30
0.0
 10
37.21992883520572
 20
46.92203330324127
 30
0.0
 10
36.60106883665355
 20
46.3570066069205
 30
0.0
 10
35.98220883810169
 20
45.79197991060069
 30
0.0
 10
35.93856832406124
 20
44.83225011904831
 30
0.0
 10
36.50359502038137
 20
44.21339012049614
 30
0.0
  0
SPLINE
  5
B8
330
5E
100
AcDbEntity
  8
Cut
 62
   179
420
  1842203
370
     9
100
AcDbSpline
210
0.0
220
0.0
230
1.0
 70
    11
 71
     3
 72
    17
 73
    13
 74
     0
 42
0.0000000001
 43
0.0000000001
 12
1.0
 22
0.0
 32
0.0
 13
1.0
 23
0.0
 33
0.0
 40
0.0
 40
0.0
 40
0.0
 40
0.0
 40
1.0
 40
1.0
 40
1.0
 40
2.0
 40
2.0
 40
2.0
 40
3.0
 40
3.0
 40
3.0
 40
4.0
 40
4.0
 40
4.0
 40
4.0
 10
25.77586744334927
 20
54.69792570110793
 30
0.0
 10
26.3408941396694
 20
54.07906570255575
 30
0.0
 10
27.30062393122242
 20
54.03542518851594
 30
0.0
 10
27.9194839297746
 20
54.60045188483575
 30
0.0
 10
28.53834392832645
 20
55.16547858115556
 30
0.0
 10
28.5819844423669
 20
56.12520837270826
 30
0.0
 10
28.01695774604709
 20
56.74406837126043
 30
0.0
 10
27.45193104972664
 20
57.36292836981293
 30
0.0
 10
26.49220125817458
 20
57.40656888385338
 30
0.0
 10
25.87334125962176
 20
56.84154218753293
 30
0.0
 10
25.25448126106959
 20
56.27651549121312
 30
0.0
 10
25.21084074702946
 20
55.31678569966042
 30
0.0
 10
25.77586744334927
 20
54.69792570110793
 30
0.0
  0
SPLINE
  5
B9
330
5E
100
AcDbEntity
  8
Cut
 62
   179
420
  1842203
370
     9
100
AcDbSpline
210
0.0
220
0.0
230
1.0
 70
    11
 71
     3
 72
    17
 73
    13
 74
     0
 42
0.0000000001
 43
0.0000000001
 12
1.0
 22
0.0
 32
0.0
 13
1.0
 23
0.0
 33
0.0
 40
0.0
 40
0.0
 40
0.0
 40
0.0
 40
1.0
 40
1.0
 40
1.0
 40
2.0
 40
2.0
 40
2.0
 40
3.0
 40
3.0
 40
3.0
 40
4.0
 40
4.0
 40
4.0
 40
4.0
 10
68.23081597129294
 20
-5.57340450567313
 30
0.0
 10
68.90811744236161
 20
-4.862665919665679
 30
0.0
 10
68.88101130501848
 20
-3.737437128418704
 30
0.0
 10
68.1702727190107
 20
-3.060135657349707
 30
0.0
 10
67.45953413300293
 20
-2.38283418628103
 30
0.0
 10
66.33430534175564
 20
-2.409940323624821
 30
0.0
 10
65.65700387068696
 20
-3.120678909632271
 30
0.0
 10
64.9797023996186
 20
-3.831417495639721
 30
0.0
 10
65.0068085369624
 20
-4.956646286886376
 30
0.0
 10
65.71754712296952
 20
-5.633947757955694
 30
0.0
 10
66.42828570897697
 20
-6.31124922902437
 30
0.0
 10
67.55351450022394
 20
-6.284143091680901
 30
0.0
 10
68.23081597129294
 20
-5.57340450567313
 30
0.0
  0
SPLINE
  5
BA
330
5E
100
AcDbEntity
  8
Cut
 62
   179
420
  1842203
370
     9
100
AcDbSpline
210
0.0
220
0.0
230
1.0
 70
    11
 71
     3
 72
    17
 73
    13
 74
     0
 42
0.0000000001
 43
0.0000000001
 12
1.0
 22
0.0
 32
0.0
 13
1.0
 23
0.0
 33
0.0
 40
0.0
 40
0.0
 40
0.0
 40
0.0
 40
1.0
 40
1.0
 40
1.0
 40
2.0
 40
2.0
 40
2.0
 40
3.0
 40
3.0
 40
3.0
 40
4.0
 40
4.0
 40
4.0
 40
4.0
 10
69.05437217482722
 20
4.080269914958853
 30
0.0
 10
69.94015087301867
 20
3.656852014792074
 30
0.0
 10
71.00146441247006
 20
4.031669498789044
 30
0.0
 10
71.42488231263717
 20
4.917448196980816
 30
0.0
 10
71.8483002128049
 20
5.803226895172267
 30
0.0
 10
71.4734827288073
 20
6.864540434623981
 30
0.0
 10
70.58770403061553
 20
7.287958334791401
 30
0.0
 10
69.7019253324244
 20
7.7113762349585
 30
0.0
 10
68.64061179297299
 20
7.336558750960889
 30
0.0
 10
68.21719389280526
 20
6.450780052769439
 30
0.0
 10
67.79377599263816
 20
5.565001354578308
 30
0.0
 10
68.16859347663576
 20
4.503687815126593
 30
0.0
 10
69.05437217482722
 20
4.080269914958853
 30
0.0
  0
SPLINE
  5
BB
330
5E
100
AcDbEntity
  8
Cut
 62
   179
420
  1842203
370
     9
100
AcDbSpline
210
0.0
220
0.0
230
1.0
 70
    11
 71
     3
 72
    17
 73
    13
 74
     0
 42
0.0000000001
 43
0.0000000001
 12
1.0
 22
0.0
 32
0.0
 13
1.0
 23
0.0
 33
0.0
 40
0.0
 40
0.0
 40
0.0
 40
0.0
 40
1.0
 40
1.0
 40
1.0
 40
2.0
 40
2.0
 40
2.0
 40
3.0
 40
3.0
 40
3.0
 40
4.0
 40
4.0
 40
4.0
 40
4.0
 10
77.15674129296353
 20
3.139886452043115
 30
0.0
 10
76.28317557222861
 20
2.69181329740126
 30
0.0
 10
75.93824569546508
 20
1.62041329952589
 30
0.0
 10
76.38631885010597
 20
0.7468475787916126
 30
0.0
 10
76.83439200474591
 20
-0.1267181419426643
 30
0.0
 10
77.9057920026232
 20
-0.4716480187068418
 30
0.0
 10
78.77935772335715
 20
-0.0235748640662706
 30
0.0
 10
79.65292344409175
 20
0.4244982905749423
 30
0.0
 10
79.99785332085561
 20
1.495898288450634
 30
0.0
 10
79.54978016621408
 20
2.369464009185552
 30
0.0
 10
79.10170701157415
 20
3.243029729919187
 30
0.0
 10
78.03030701369781
 20
3.587959606683044
 30
0.0
 10
77.15674129296353
 20
3.139886452043115
 30
0.0
  0
SPLINE
  5
BC
330
5E
100
AcDbEntity
  8
Cut
 62
   179
420
  1842203
370
     9
100
AcDbSpline
210
0.0
220
0.0
230
1.0
 70
    11
 71
     3
 72
    17
 73
    13
 74
     0
 42
0.0000000001
 43
0.0000000001
 12
1.0
 22
0.0
 32
0.0
 13
1.0
 23
0.0
 33
0.0
 40
0.0
 40
0.0
 40
0.0
 40
0.0
 40
1.0
 40
1.0
 40
1.0
 40
2.0
 40
2.0
 40
2.0
 40
3.0
 40
3.0
 40
3.0
 40
4.0
 40
4.0
 40
4.0
 40
4.0
 10
81.05657738949718
 20
-6.154731834749557
 30
0.0
 10
80.1830116687629
 20
-6.602804989391412
 30
0.0
 10
79.83808179199904
 20
-7.674204987267103
 30
0.0
 10
80.28615494663961
 20
-8.54777070800106
 30
0.0
 10
80.73422810128018
 20
-9.421336428735657
 30
0.0
 10
81.8056280991562
 20
-9.766266305499835
 30
0.0
 10
82.67919381989144
 20
-9.318193150858942
 30
0.0
 10
83.55275954062571
 20
-8.870119996218051
 30
0.0
 10
83.89768941738924
 20
-7.798719998342359
 30
0.0
 10
83.44961626274835
 20
-6.925154277607441
 30
0.0
 10
83.00154310810778
 20
-6.051588556873164
 30
0.0
 10
81.93014311023177
 20
-5.706658680109308
 30
0.0
 10
81.05657738949718
 20
-6.154731834749557
 30
0.0
  0
SPLINE
  5
BD
330
5E
100
AcDbEntity
  8
Cut
 62
   179
420
  1842203
370
     9
100
AcDbSpline
210
0.0
220
0.0
230
1.0
 70
    11
 71
     3
 72
    17
 73
    13
 74
     0
 42
0.0000000001
 43
0.0000000001
 12
1.0
 22
0.0
 32
0.0
 13
1.0
 23
0.0
 33
0.0
 40
0.0
 40
0.0
 40
0.0
 40
0.0
 40
1.0
 40
1.0
 40
1.0
 40
2.0
 40
2.0
 40
2.0
 40
3.0
 40
3.0
 40
3.0
 40
4.0
 40
4.0
 40
4.0
 40
4.0
 10
73.76256333004174
 20
-13.4961911167586
 30
0.0
 10
72.88899760930778
 20
-13.94426427140014
 30
0.0
 10
72.54406773254361
 20
-15.01566426927551
 30
0.0
 10
72.99214088718482
 20
-15.8892299900101
 30
0.0
 10
73.44021404182507
 20
-16.76279571074534
 30
0.0
 10
74.51161403970173
 20
-17.10772558750856
 30
0.0
 10
75.38517976043664
 20
-16.65965243286767
 30
0.0
 10
76.25874548117028
 20
-16.21157927822646
 30
0.0
 10
76.60367535793445
 20
-15.14017928035108
 30
0.0
 10
76.15560220329324
 20
-14.26661355961617
 30
0.0
 10
75.70752904865299
 20
-13.39304783888221
 30
0.0
 10
74.63612905077666
 20
-13.04811796211835
 30
0.0
 10
73.76256333004174
 20
-13.4961911167586
 30
0.0
  0
SPLINE
  5
BE
330
5E
100
AcDbEntity
  8
Cut
 62
   179
420
  1842203
370
     9
100
AcDbSpline
210
0.0
220
0.0
230
1.0
 70
    11
 71
     3
 72
    17
 73
    13
 74
     0
 42
0.0000000001
 43
0.0000000001
 12
1.0
 22
0.0
 32
0.0
 13
1.0
 23
0.0
 33
0.0
 40
0.0
 40
0.0
 40
0.0
 40
0.0
 40
1.0
 40
1.0
 40
1.0
 40
2.0
 40
2.0
 40
2.0
 40
3.0
 40
3.0
 40
3.0
 40
4.0
 40
4.0
 40
4.0
 40
4.0
 10
74.86907542946417
 20
-23.40343555828993
 30
0.0
 10
73.9955097087299
 20
-23.85150871293146
 30
0.0
 10
73.65057983196573
 20
-24.92290871080748
 30
0.0
 10
74.09865298660694
 20
-25.79647443154111
 30
0.0
 10
74.54672614124686
 20
-26.67004015227603
 30
0.0
 10
75.61812613912352
 20
-27.01497002903989
 30
0.0
 10
76.49169185985812
 20
-26.566896874399
 30
0.0
 10
77.36525758059271
 20
-26.1188237197581
 30
0.0
 10
77.71018745735562
 20
-25.04742372188241
 30
0.0
 10
77.26211430271503
 20
-24.17385800114717
 30
0.0
 10
76.81404114807479
 20
-23.30029228041322
 30
0.0
 10
75.74264115019878
 20
-22.95536240364968
 30
0.0
 10
74.86907542946417
 20
-23.40343555828993
 30
0.0
  0
SPLINE
  5
BF
330
5E
100
AcDbEntity
  8
Cut
 62
   179
420
  1842203
370
     9
100
AcDbSpline
210
0.0
220
0.0
230
1.0
 70
    11
 71
     3
 72
    17
 73
    13
 74
     0
 42
0.0000000001
 43
0.0000000001
 12
1.0
 22
0.0
 32
0.0
 13
1.0
 23
0.0
 33
0.0
 40
0.0
 40
0.0
 40
0.0
 40
0.0
 40
1.0
 40
1.0
 40
1.0
 40
2.0
 40
2.0
 40
2.0
 40
3.0
 40
3.0
 40
3.0
 40
4.0
 40
4.0
 40
4.0
 40
4.0
 10
69.9046405079881
 20
-32.638354379932
 30
0.0
 10
69.03107478725447
 20
-33.08642753457257
 30
0.0
 10
68.68614491048997
 20
-34.15782753244859
 30
0.0
 10
69.13421806513118
 20
-35.03139325318254
 30
0.0
 10
69.58229121977111
 20
-35.90495897391746
 30
0.0
 10
70.65369121764809
 20
-36.249888850681
 30
0.0
 10
71.52725693838268
 20
-35.8018156960401
 30
0.0
 10
72.40082265911664
 20
-35.35374254139921
 30
0.0
 10
72.74575253588017
 20
-34.28234254352352
 30
0.0
 10
72.2976793812396
 20
-33.40877682278924
 30
0.0
 10
71.84960622659935
 20
-32.53521110205465
 30
0.0
 10
70.7782062287227
 20
-32.19028122529079
 30
0.0
 10
69.9046405079881
 20
-32.638354379932
 30
0.0
  0
SPLINE
  5
C0
330
5E
100
AcDbEntity
  8
Cut
 62
   179
420
  1842203
370
     9
100
AcDbSpline
210
0.0
220
0.0
230
1.0
 70
    11
 71
     3
 72
    17
 73
    13
 74
     0
 42
0.0000000001
 43
0.0000000001
 12
1.0
 22
0.0
 32
0.0
 13
1.0
 23
0.0
 33
0.0
 40
0.0
 40
0.0
 40
0.0
 40
0.0
 40
1.0
 40
1.0
 40
1.0
 40
2.0
 40
2.0
 40
2.0
 40
3.0
 40
3.0
 40
3.0
 40
4.0
 40
4.0
 40
4.0
 40
4.0
 10
58.01514487462121
 20
-22.85294281288233
 30
0.0
 10
57.14157915388726
 20
-23.30101596752322
 30
0.0
 10
56.7966492771234
 20
-24.37241596539955
 30
0.0
 10
57.24472243176365
 20
-25.24598168613383
 30
0.0
 10
57.69279558640422
 20
-26.11954740686843
 30
0.0
 10
58.76419558428023
 20
-26.46447728363196
 30
0.0
 10
59.63776130501515
 20
-26.01640412899139
 30
0.0
 10
60.51132702574975
 20
-25.56833097435018
 30
0.0
 10
60.85625690251297
 20
-24.49693097647481
 30
0.0
 10
60.40818374787239
 20
-23.62336525574021
 30
0.0
 10
59.96011059323214
 20
-22.74979953500561
 30
0.0
 10
58.88871059535581
 20
-22.40486965824143
 30
0.0
 10
58.01514487462121
 20
-22.85294281288233
 30
0.0
  0
SPLINE
  5
C1
330
5E
100
AcDbEntity
  8
Cut
 62
   179
420
  1842203
370
     9
100
AcDbSpline
210
0.0
220
0.0
230
1.0
 70
    11
 71
     3
 72
    17
 73
    13
 74
     0
 42
0.0000000001
 43
0.0000000001
 12
1.0
 22
0.0
 32
0.0
 13
1.0
 23
0.0
 33
0.0
 40
0.0
 40
0.0
 40
0.0
 40
0.0
 40
1.0
 40
1.0
 40
1.0
 40
2.0
 40
2.0
 40
2.0
 40
3.0
 40
3.0
 40
3.0
 40
4.0
 40
4.0
 40
4.0
 40
4.0
 10
49.05931050128265
 20
-5.916173070491176
 30
0.0
 10
48.63589260111587
 20
-6.801951768683269
 30
0.0
 10
49.01071008511284
 20
-7.863265308134341
 30
0.0
 10
49.89648878330397
 20
-8.28668320830144
 30
0.0
 10
50.78226748149574
 20
-8.710101108469502
 30
0.0
 10
51.84358102094745
 20
-8.33528362447125
 30
0.0
 10
52.2669989211152
 20
-7.449504926280119
 30
0.0
 10
52.69041682128165
 20
-6.563726228088027
 30
0.0
 10
52.31559933728501
 20
-5.502412688636953
 30
0.0
 10
51.42982063909324
 20
-5.078994788469534
 30
0.0
 10
50.54404194090147
 20
-4.655576888302114
 30
0.0
 10
49.48272840145039
 20
-5.030394372299725
 30
0.0
 10
49.05931050128265
 20
-5.916173070491176
 30
0.0
  0
SPLINE
  5
C2
330
5E
100
AcDbEntity
  8
Cut
 62
   179
420
  1842203
370
     9
100
AcDbSpline
210
0.0
220
0.0
230
1.0
 70
    11
 71
     3
 72
    17
 73
    13
 74
     0
 42
0.0000000001
 43
0.0000000001
 12
1.0
 22
0.0
 32
0.0
 13
1.0
 23
0.0
 33
0.0
 40
0.0
 40
0.0
 40
0.0
 40
0.0
 40
1.0
 40
1.0
 40
1.0
 40
2.0
 40
2.0
 40
2.0
 40
3.0
 40
3.0
 40
3.0
 40
4.0
 40
4.0
 40
4.0
 40
4.0
 10
38.94152538577138
 20
19.52579435332039
 30
0.0
 10
38.5181074856046
 20
18.64001565512894
 30
0.0
 10
38.89292496960125
 20
17.57870211567755
 30
0.0
 10
39.7787036677927
 20
17.15528421551045
 30
0.0
 10
40.66448236598447
 20
16.73186631534271
 30
0.0
 10
41.72579590543587
 20
17.10668379934064
 30
0.0
 10
42.14921380560393
 20
17.99246249753177
 30
0.0
 10
42.57263170577038
 20
18.87824119572419
 30
0.0
 10
42.19781422177341
 20
19.93955473517462
 30
0.0
 10
41.31203552358164
 20
20.36297263534268
 30
0.0
 10
40.42625682539019
 20
20.7863905355101
 30
0.0
 10
39.36494328593912
 20
20.41157305151184
 30
0.0
 10
38.94152538577138
 20
19.52579435332039
 30
0.0
  0
SPLINE
  5
C3
330
5E
100
AcDbEntity
  8
Cut
 62
   179
420
  1842203
370
     9
100
AcDbSpline
210
0.0
220
0.0
230
1.0
 70
    11
 71
     3
 72
    17
 73
    13
 74
     0
 42
0.0000000001
 43
0.0000000001
 12
1.0
 22
0.0
 32
0.0
 13
1.0
 23
0.0
 33
0.0
 40
0.0
 40
0.0
 40
0.0
 40
0.0
 40
1.0
 40
1.0
 40
1.0
 40
2.0
 40
2.0
 40
2.0
 40
3.0
 40
3.0
 40
3.0
 40
4.0
 40
4.0
 40
4.0
 40
4.0
 10
40.71233963237979
 20
34.71120695987393
 30
0.0
 10
40.28892173221301
 20
33.82542826168184
 30
0.0
 10
40.66373921620966
 20
32.76411472223045
 30
0.0
 10
41.54951791440079
 20
32.34069682206367
 30
0.0
 10
42.43529661259256
 20
31.9172789218956
 30
0.0
 10
43.49661015204396
 20
32.29209640589386
 30
0.0
 10
43.92002805221202
 20
33.17787510408531
 30
0.0
 10
44.34344595237911
 20
34.06365380227644
 30
0.0
 10
43.9686284683815
 20
35.12496734172783
 30
0.0
 10
43.08284977018973
 20
35.54838524189493
 30
0.0
 10
42.19707107199892
 20
35.971803142063
 30
0.0
 10
41.13575753254721
 20
35.59698565806539
 30
0.0
 10
40.71233963237979
 20
34.71120695987393
 30
0.0
  0
SPLINE
  5
C4
330
5E
100
AcDbEntity
  8
Cut
 62
   179
420
  1842203
370
     9
100
AcDbSpline
210
0.0
220
0.0
230
1.0
 70
    11
 71
     3
 72
    17
 73
    13
 74
     0
 42
0.0000000001
 43
0.0000000001
 12
1.0
 22
0.0
 32
0.0
 13
1.0
 23
0.0
 33
0.0
 40
0.0
 40
0.0
 40
0.0
 40
0.0
 40
1.0
 40
1.0
 40
1.0
 40
2.0
 40
2.0
 40
2.0
 40
3.0
 40
3.0
 40
3.0
 40
4.0
 40
4.0
 40
4.0
 40
4.0
 10
41.50938195560864
 20
40.50046203028541
 30
0.0
 10
41.08596405544154
 20
39.61468333209363
 30
0.0
 10
41.46078153943851
 20
38.55336979264256
 30
0.0
 10
42.34656023762964
 20
38.12995189247546
 30
0.0
 10
43.23233893582173
 20
37.70653399230772
 30
0.0
 10
44.2936524752728
 20
38.08135147630501
 30
0.0
 10
44.71707037544086
 20
38.96713017449678
 30
0.0
 10
45.14048827560732
 20
39.85290887268823
 30
0.0
 10
44.76567079161067
 20
40.9142224121393
 30
0.0
 10
43.87989209341826
 20
41.33764031230704
 30
0.0
 10
42.99411339522745
 20
41.76105821247447
 30
0.0
 10
41.93279985577541
 20
41.38624072847686
 30
0.0
 10
41.50938195560864
 20
40.50046203028541
 30
0.0
  0
SPLINE
  5
C5
330
5E
100
AcDbEntity
  8
Cut
 62
   179
420
  1842203
370
     9
100
AcDbSpline
210
0.0
220
0.0
230
1.0
 70
    11
 71
     3
 72
    17
 73
    13
 74
     0
 42
0.0000000001
 43
0.0000000001
 12
1.0
 22
0.0
 32
0.0
 13
1.0
 23
0.0
 33
0.0
 40
0.0
 40
0.0
 40
0.0
 40
0.0
 40
1.0
 40
1.0
 40
1.0
 40
2.0
 40
2.0
 40
2.0
 40
3.0
 40
3.0
 40
3.0
 40
4.0
 40
4.0
 40
4.0
 40
4.0
 10
55.26180447479587
 20
1.65058959010465
 30
0.0
 10
54.83838657462908
 20
0.7648108919128778
 30
0.0
 10
55.21320405862541
 20
-0.2965026475388369
 30
0.0
 10
56.09898275681687
 20
-0.7199205477062568
 30
0.0
 10
56.98476145500864
 20
-1.143338447873356
 30
0.0
 10
58.04607499446003
 20
-0.7685209638760656
 30
0.0
 10
58.46949289462809
 20
0.1172577343157062
 30
0.0
 10
58.89291079479519
 20
1.003036432507478
 30
0.0
 10
58.5180933107979
 20
2.064349971958551
 30
0.0
 10
57.63231461260581
 20
2.48776787212565
 30
0.0
 10
56.746535914415
 20
2.911185772293391
 30
0.0
 10
55.68522237496329
 20
2.53636828829578
 30
0.0
 10
55.26180447479587
 20
1.65058959010465
 30
0.0
  0
SPLINE
  5
C6
330
5E
100
AcDbEntity
  8
Cut
 62
   179
420
  1842203
370
     9
100
AcDbSpline
210
0.0
220
0.0
230
1.0
 70
    11
 71
     3
 72
    17
 73
    13
 74
     0
 42
0.0000000001
 43
0.0000000001
 12
1.0
 22
0.0
 32
0.0
 13
1.0
 23
0.0
 33
0.0
 40
0.0
 40
0.0
 40
0.0
 40
0.0
 40
1.0
 40
1.0
 40
1.0
 40
2.0
 40
2.0
 40
2.0
 40
3.0
 40
3.0
 40
3.0
 40
4.0
 40
4.0
 40
4.0
 40
4.0
 10
49.92721169600782
 20
7.155028953160772
 30
0.0
 10
49.3415152183588
 20
5.929767897112191
 30
0.0
 10
49.85998474941049
 20
4.461696751576667
 30
0.0
 10
51.08524580545715
 20
3.876000273926685
 30
0.0
 10
52.31050686150445
 20
3.290303796275419
 30
0.0
 10
53.77857800704125
 20
3.808773327328718
 30
0.0
 10
54.3642744846922
 20
5.034034383376659
 30
0.0
 10
54.94997096234187
 20
6.259295439423315
 30
0.0
 10
54.43150143129017
 20
7.727366584959801
 30
0.0
 10
53.20624037524126
 20
8.313063062609784
 30
0.0
 10
51.98097931919525
 20
8.898759540260409
 30
0.0
 10
50.51290817365845
 20
8.38029000920775
 30
0.0
 10
49.92721169600782
 20
7.155028953160772
 30
0.0
  0
SPLINE
  5
C7
330
5E
100
AcDbEntity
  8
Cut
 62
   179
420
  1842203
370
     9
100
AcDbSpline
210
0.0
220
0.0
230
1.0
 70
    11
 71
     3
 72
    17
 73
    13
 74
     0
 42
0.0000000001
 43
0.0000000001
 12
1.0
 22
0.0
 32
0.0
 13
1.0
 23
0.0
 33
0.0
 40
0.0
 40
0.0
 40
0.0
 40
0.0
 40
1.0
 40
1.0
 40
1.0
 40
2.0
 40
2.0
 40
2.0
 40
3.0
 40
3.0
 40
3.0
 40
4.0
 40
4.0
 40
4.0
 40
4.0
 10
40.42966253501478
 20
25.96044328166863
 30
0.0
 10
39.84396605736544
 20
24.73518222562102
 30
0.0
 10
40.36243558841746
 20
23.26711108008485
 30
0.0
 10
41.58769664446412
 20
22.68141460243487
 30
0.0
 10
42.81295770051142
 20
22.0957181247836
 30
0.0
 10
44.28102884604854
 20
22.61418765583658
 30
0.0
 10
44.86672532369917
 20
23.83944871188452
 30
0.0
 10
45.45242180134915
 20
25.06470976793118
 30
0.0
 10
44.93395227029649
 20
26.53278091346766
 30
0.0
 10
43.70869121424855
 20
27.11847739111765
 30
0.0
 10
42.48343015820222
 20
27.70417386876827
 30
0.0
 10
41.01535901266541
 20
27.18570433771529
 30
0.0
 10
40.42966253501478
 20
25.96044328166863
 30
0.0
  0
SPLINE
  5
C8
330
5E
100
AcDbEntity
  8
Cut
 62
   179
420
  1842203
370
     9
100
AcDbSpline
210
0.0
220
0.0
230
1.0
 70
    11
 71
     3
 72
    17
 73
    13
 74
     0
 42
0.0000000001
 43
0.0000000001
 12
1.0
 22
0.0
 32
0.0
 13
1.0
 23
0.0
 33
0.0
 40
0.0
 40
0.0
 40
0.0
 40
0.0
 40
1.0
 40
1.0
 40
1.0
 40
2.0
 40
2.0
 40
2.0
 40
3.0
 40
3.0
 40
3.0
 40
4.0
 40
4.0
 40
4.0
 40
4.0
 10
45.74343939709365
 20
0.4295199083410717
 30
0.0
 10
45.1577429194443
 20
-0.7957411477071891
 30
0.0
 10
45.67621245049568
 20
-2.263812293243033
 30
0.0
 10
46.90147350654265
 20
-2.849508770892695
 30
0.0
 10
48.12673456259027
 20
-3.435205248543641
 30
0.0
 10
49.5948057081274
 20
-2.916735717490983
 30
0.0
 10
50.18050218577802
 20
-1.691474661443684
 30
0.0
 10
50.76619866342737
 20
-0.4662136053963861
 30
0.0
 10
50.24772913237503
 20
1.0018575401401
 30
0.0
 10
49.02246807632741
 20
1.587554017790404
 30
0.0
 10
47.79720702028107
 20
2.173250495441028
 30
0.0
 10
46.32913587474395
 20
1.654780964387728
 30
0.0
 10
45.74343939709365
 20
0.4295199083410717
 30
0.0
  0
SPLINE
  5
C9
330
5E
100
AcDbEntity
  8
Cut
 62
   179
420
  1842203
370
     9
100
AcDbSpline
210
0.0
220
0.0
230
1.0
 70
    11
 71
     3
 72
    17
 73
    13
 74
     0
 42
0.0000000001
 43
0.0000000001
 12
1.0
 22
0.0
 32
0.0
 13
1.0
 23
0.0
 33
0.0
 40
0.0
 40
0.0
 40
0.0
 40
0.0
 40
1.0
 40
1.0
 40
1.0
 40
2.0
 40
2.0
 40
2.0
 40
3.0
 40
3.0
 40
3.0
 40
4.0
 40
4.0
 40
4.0
 40
4.0
 10
64.5452131315442
 20
-10.73614405683393
 30
0.0
 10
63.95951665389519
 20
-11.96140511288187
 30
0.0
 10
64.47798618494687
 20
-13.42947625841835
 30
0.0
 10
65.7032472409932
 20
-14.01517273606802
 30
0.0
 10
66.92850829704084
 20
-14.60086921371896
 30
0.0
 10
68.39657944257796
 20
-14.08239968266598
 30
0.0
 10
68.98227592022859
 20
-12.85713862661868
 30
0.0
 10
69.56797239787792
 20
-11.63187757057139
 30
0.0
 10
69.0495028668259
 20
-10.1638064250349
 30
0.0
 10
67.82424181077796
 20
-9.578109947384274
 30
0.0
 10
66.59898075473163
 20
-8.992413469734291
 30
0.0
 10
65.13090960919483
 20
-9.51088300078663
 30
0.0
 10
64.5452131315442
 20
-10.73614405683393
 30
0.0
  0
SPLINE
  5
CA
330
5E
100
AcDbEntity
  8
Cut
 62
   179
420
  1842203
370
     9
100
AcDbSpline
210
0.0
220
0.0
230
1.0
 70
    11
 71
     3
 72
    17
 73
    13
 74
     0
 42
0.0000000001
 43
0.0000000001
 12
1.0
 22
0.0
 32
0.0
 13
1.0
 23
0.0
 33
0.0
 40
0.0
 40
0.0
 40
0.0
 40
0.0
 40
1.0
 40
1.0
 40
1.0
 40
2.0
 40
2.0
 40
2.0
 40
3.0
 40
3.0
 40
3.0
 40
4.0
 40
4.0
 40
4.0
 40
4.0
 10
72.4880635042546
 20
-7.782937417740106
 30
0.0
 10
73.8120034067002
 20
-9.23301659355106
 30
0.0
 10
76.06079018948053
 20
-9.335272678577622
 30
0.0
 10
77.51086936529117
 20
-8.011332776132024
 30
0.0
 10
78.96094854110213
 20
-6.687392873685783
 30
0.0
 10
79.06320462612868
 20
-4.438606090905442
 30
0.0
 10
77.73926472368277
 20
-2.988526915094809
 30
0.0
 10
76.41532482123716
 20
-1.538447739284817
 30
0.0
 10
74.16653803845682
 20
-1.436191654257293
 30
0.0
 10
72.71645886264619
 20
-2.760131556703854
 30
0.0
 10
71.26637968683556
 20
-4.084071459149132
 30
0.0
 10
71.16412360180867
 20
-6.332858241929473
 30
0.0
 10
72.4880635042546
 20
-7.782937417740106
 30
0.0
  0
SPLINE
  5
CB
330
5E
100
AcDbEntity
  8
Cut
 62
   179
420
  1842203
370
     9
100
AcDbSpline
210
0.0
220
0.0
230
1.0
 70
    11
 71
     3
 72
    17
 73
    13
 74
     0
 42
0.0000000001
 43
0.0000000001
 12
1.0
 22
0.0
 32
0.0
 13
1.0
 23
0.0
 33
0.0
 40
0.0
 40
0.0
 40
0.0
 40
0.0
 40
1.0
 40
1.0
 40
1.0
 40
2.0
 40
2.0
 40
2.0
 40
3.0
 40
3.0
 40
3.0
 40
4.0
 40
4.0
 40
4.0
 40
4.0
 10
64.19297493531721
 20
-45.74273032978173
 30
0.0
 10
65.5169148377628
 20
-47.19280950559205
 30
0.0
 10
67.76570162054283
 20
-47.29506559061893
 30
0.0
 10
69.2157807963541
 20
-45.97112568817268
 30
0.0
 10
70.66585997216441
 20
-44.64718578572741
 30
0.0
 10
70.76811605719129
 20
-42.39839900294675
 30
0.0
 10
69.44417615474569
 20
-40.94831982713579
 30
0.0
 10
68.12023625229978
 20
-39.4982406513258
 30
0.0
 10
65.87144946951943
 20
-39.39598456629892
 30
0.0
 10
64.4213702937088
 20
-40.71992446874452
 30
0.0
 10
62.97129111789849
 20
-42.04386437119012
 30
0.0
 10
62.86903503287097
 20
-44.29265115397078
 30
0.0
 10
64.19297493531721
 20
-45.74273032978173
 30
0.0
  0
SPLINE
  5
CC
330
5E
100
AcDbEntity
  8
Cut
 62
   179
420
  1842203
370
     9
100
AcDbSpline
210
0.0
220
0.0
230
1.0
 70
    11
 71
     3
 72
    17
 73
    13
 74
     0
 42
0.0000000001
 43
0.0000000001
 12
1.0
 22
0.0
 32
0.0
 13
1.0
 23
0.0
 33
0.0
 40
0.0
 40
0.0
 40
0.0
 40
0.0
 40
1.0
 40
1.0
 40
1.0
 40
2.0
 40
2.0
 40
2.0
 40
3.0
 40
3.0
 40
3.0
 40
4.0
 40
4.0
 40
4.0
 40
4.0
 10
60.06522731422324
 20
-35.03495667305396
 30
0.0
 10
61.38916721666915
 20
-36.48503584886492
 30
0.0
 10
63.63795399945013
 20
-36.5872919338918
 30
0.0
 10
65.08803317526045
 20
-35.26335203144556
 30
0.0
 10
66.53811235107077
 20
-33.93941212899963
 30
0.0
 10
66.64036843609796
 20
-31.69062534621962
 30
0.0
 10
65.31642853365204
 20
-30.24054617040898
 30
0.0
 10
63.99248863120612
 20
-28.79046699459835
 30
0.0
 10
61.74370184842579
 20
-28.68821090957179
 30
0.0
 10
60.29362267261483
 20
-30.01215081201707
 30
0.0
 10
58.84354349680419
 20
-31.33609071446331
 30
0.0
 10
58.74128741177763
 20
-33.58487749724333
 30
0.0
 10
60.06522731422324
 20
-35.03495667305396
 30
0.0
  0
SPLINE
  5
CD
330
5E
100
AcDbEntity
  8
Cut
 62
   179
420
  1842203
370
     9
100
AcDbSpline
210
0.0
220
0.0
230
1.0
 70
    11
 71
     3
 72
    17
 73
    13
 74
     0
 42
0.0000000001
 43
0.0000000001
 12
1.0
 22
0.0
 32
0.0
 13
1.0
 23
0.0
 33
0.0
 40
0.0
 40
0.0
 40
0.0
 40
0.0
 40
1.0
 40
1.0
 40
1.0
 40
2.0
 40
2.0
 40
2.0
 40
3.0
 40
3.0
 40
3.0
 40
4.0
 40
4.0
 40
4.0
 40
4.0
 10
64.25106265537286
 20
-24.50277168825098
 30
0.0
 10
66.09645963804839
 20
-26.52399012176005
 30
0.0
 10
69.23097075593057
 20
-26.66652156931283
 30
0.0
 10
71.25218918944029
 20
-24.8211245866373
 30
0.0
 10
73.27340762294902
 20
-22.97572760396146
 30
0.0
 10
73.41593907050212
 20
-19.84121648607927
 30
0.0
 10
71.5705420878266
 20
-17.8199980525702
 30
0.0
 10
69.72514510515043
 20
-15.79877961906081
 30
0.0
 10
66.59063398726856
 20
-15.65624817150772
 30
0.0
 10
64.56941555375886
 20
-17.50164515418324
 30
0.0
 10
62.54819712024947
 20
-19.34704213685941
 30
0.0
 10
62.40566567269701
 20
-22.48155325474192
 30
0.0
 10
64.25106265537286
 20
-24.50277168825098
 30
0.0
  0
SPLINE
  5
CE
330
5E
100
AcDbEntity
  8
Cut
 62
   179
420
  1842203
370
     9
100
AcDbSpline
210
0.0
220
0.0
230
1.0
 70
    11
 71
     3
 72
    17
 73
    13
 74
     0
 42
0.0000000001
 43
0.0000000001
 12
1.0
 22
0.0
 32
0.0
 13
1.0
 23
0.0
 33
0.0
 40
0.0
 40
0.0
 40
0.0
 40
0.0
 40
1.0
 40
1.0
 40
1.0
 40
2.0
 40
2.0
 40
2.0
 40
3.0
 40
3.0
 40
3.0
 40
4.0
 40
4.0
 40
4.0
 40
4.0
 10
40.07250001087427
 20
82.12814190632179
 30
0.0
 10
41.1561083496534
 20
82.0107680594426
 30
0.0
 10
42.12969677470588
 20
82.7940558787243
 30
0.0
 10
42.24707062158539
 20
83.87766421750374
 30
0.0
 10
42.3644444684649
 20
84.96127255628352
 30
0.0
 10
41.58115664918353
 20
85.93486098133535
 30
0.0
 10
40.49754831040377
 20
86.05223482821454
 30
0.0
 10
39.41393997162367
 20
86.16960867509373
 30
0.0
 10
38.44035154657247
 20
85.386320855813
 30
0.0
 10
38.32297769969264
 20
84.30271251703323
 30
0.0
 10
38.20560385281313
 20
83.21910417825346
 30
0.0
 10
38.9888916720945
 20
82.24551575320098
 30
0.0
 10
40.07250001087427
 20
82.12814190632179
 30
0.0
  0
SPLINE
  5
CF
330
5E
100
AcDbEntity
  8
Cut
 62
   179
420
  1842203
370
     9
100
AcDbSpline
210
0.0
220
0.0
230
1.0
 70
    11
 71
     3
 72
    17
 73
    13
 74
     0
 42
0.0000000001
 43
0.0000000001
 12
1.0
 22
0.0
 32
0.0
 13
1.0
 23
0.0
 33
0.0
 40
0.0
 40
0.0
 40
0.0
 40
0.0
 40
1.0
 40
1.0
 40
1.0
 40
2.0
 40
2.0
 40
2.0
 40
3.0
 40
3.0
 40
3.0
 40
4.0
 40
4.0
 40
4.0
 40
4.0
 10
53.00019316344652
 20
77.54572640231831
 30
0.0
 10
54.95232919686818
 20
77.33427572620793
 30
0.0
 10
56.70626277069636
 20
78.74538001715509
 30
0.0
 10
56.91771344680674
 20
80.6975160505761
 30
0.0
 10
57.1291641229171
 20
82.64965208399681
 30
0.0
 10
55.71805983197028
 20
84.40358565782499
 30
0.0
 10
53.76592379854894
 20
84.61503633393568
 30
0.0
 10
51.81378776512824
 20
84.82648701004669
 30
0.0
 10
50.05985419130037
 20
83.4153827190989
 30
0.0
 10
49.84840351518904
 20
81.4632466856782
 30
0.0
 10
49.63695283907835
 20
79.51111065225717
 30
0.0
 10
51.04805713002614
 20
77.757177078429
 30
0.0
 10
53.00019316344652
 20
77.54572640231831
 30
0.0
  0
SPLINE
  5
D0
330
5E
100
AcDbEntity
  8
Cut
 62
   179
420
  1842203
370
     9
100
AcDbSpline
210
0.0
220
0.0
230
1.0
 70
    11
 71
     3
 72
    17
 73
    13
 74
     0
 42
0.0000000001
 43
0.0000000001
 12
1.0
 22
0.0
 32
0.0
 13
1.0
 23
0.0
 33
0.0
 40
0.0
 40
0.0
 40
0.0
 40
0.0
 40
1.0
 40
1.0
 40
1.0
 40
2.0
 40
2.0
 40
2.0
 40
3.0
 40
3.0
 40
3.0
 40
4.0
 40
4.0
 40
4.0
 40
4.0
 10
63.32443542849404
 20
70.56576107211693
 30
0.0
 10
65.27657146191507
 20
70.35431039600657
 30
0.0
 10
67.03050503574325
 20
71.76541468695403
 30
0.0
 10
67.24195571185362
 20
73.71755072037504
 30
0.0
 10
67.45340638796495
 20
75.66968675379574
 30
0.0
 10
66.04230209701652
 20
77.42362032762361
 30
0.0
 10
64.09016606359582
 20
77.63507100373526
 30
0.0
 10
62.13803003017544
 20
77.84652167984562
 30
0.0
 10
60.38409645634694
 20
76.43541738889785
 30
0.0
 10
60.17264578023657
 20
74.48328135547746
 30
0.0
 10
59.96119510412492
 20
72.53114532205612
 30
0.0
 10
61.37229939507302
 20
70.77721174822825
 30
0.0
 10
63.32443542849404
 20
70.56576107211693
 30
0.0
  0
SPLINE
  5
D1
330
5E
100
AcDbEntity
  8
Cut
 62
   179
420
  1842203
370
     9
100
AcDbSpline
210
0.0
220
0.0
230
1.0
 70
    11
 71
     3
 72
    17
 73
    13
 74
     0
 42
0.0000000001
 43
0.0000000001
 12
1.0
 22
0.0
 32
0.0
 13
1.0
 23
0.0
 33
0.0
 40
0.0
 40
0.0
 40
0.0
 40
0.0
 40
1.0
 40
1.0
 40
1.0
 40
2.0
 40
2.0
 40
2.0
 40
3.0
 40
3.0
 40
3.0
 40
4.0
 40
4.0
 40
4.0
 40
4.0
 10
78.78352225494076
 20
74.90188115513708
 30
0.0
 10
80.73565828836146
 20
74.69043047902639
 30
0.0
 10
82.48959186218997
 20
76.10153476997385
 30
0.0
 10
82.70104253830097
 20
78.05367080339455
 30
0.0
 10
82.91249321441134
 20
80.0058068368159
 30
0.0
 10
81.50138892346419
 20
81.75974041064408
 30
0.0
 10
79.54925289004254
 20
81.97119108675444
 30
0.0
 10
77.59711685662215
 20
82.18264176286579
 30
0.0
 10
75.84318328279333
 20
80.77153747191736
 30
0.0
 10
75.63173260668296
 20
78.81940143849666
 30
0.0
 10
75.42028193057163
 20
76.86726540507595
 30
0.0
 10
76.83138622152006
 20
75.11333183124778
 30
0.0
 10
78.78352225494076
 20
74.90188115513708
 30
0.0
  0
SPLINE
  5
D2
330
5E
100
AcDbEntity
  8
Cut
 62
   179
420
  1842203
370
     9
100
AcDbSpline
210
0.0
220
0.0
230
1.0
 70
    11
 71
     3
 72
    17
 73
    13
 74
     0
 42
0.0000000001
 43
0.0000000001
 12
1.0
 22
0.0
 32
0.0
 13
1.0
 23
0.0
 33
0.0
 40
0.0
 40
0.0
 40
0.0
 40
0.0
 40
1.0
 40
1.0
 40
1.0
 40
2.0
 40
2.0
 40
2.0
 40
3.0
 40
3.0
 40
3.0
 40
4.0
 40
4.0
 40
4.0
 40
4.0
 10
88.03111673779948
 20
58.30781754963229
 30
0.0
 10
89.98325277122082
 20
58.09636687352128
 30
0.0
 10
91.737186345049
 20
59.50747116446939
 30
0.0
 10
91.94863702116001
 20
61.45960719789009
 30
0.0
 10
92.16008769727006
 20
63.41174323131047
 30
0.0
 10
90.74898340632292
 20
65.16567680513928
 30
0.0
 10
88.79684737290157
 20
65.37712748124999
 30
0.0
 10
86.84471133948152
 20
65.58857815736067
 30
0.0
 10
85.09077776565333
 20
64.17747386641352
 30
0.0
 10
84.87932708954231
 20
62.22533783299218
 30
0.0
 10
84.66787641343132
 20
60.27320179957148
 30
0.0
 10
86.07898070437878
 20
58.51926822574298
 30
0.0
 10
88.03111673779948
 20
58.30781754963229
 30
0.0
  0
SPLINE
  5
D3
330
5E
100
AcDbEntity
  8
Cut
 62
   179
420
  1842203
370
     9
100
AcDbSpline
210
0.0
220
0.0
230
1.0
 70
    11
 71
     3
 72
    17
 73
    13
 74
     0
 42
0.0000000001
 43
0.0000000001
 12
1.0
 22
0.0
 32
0.0
 13
1.0
 23
0.0
 33
0.0
 40
0.0
 40
0.0
 40
0.0
 40
0.0
 40
1.0
 40
1.0
 40
1.0
 40
2.0
 40
2.0
 40
2.0
 40
3.0
 40
3.0
 40
3.0
 40
4.0
 40
4.0
 40
4.0
 40
4.0
 10
100.6480629690833
 20
68.7191607571027
 30
0.0
 10
102.6001990025046
 20
68.50771008099234
 30
0.0
 10
104.3541325763322
 20
69.91881437194075
 30
0.0
 10
104.5655832524438
 20
71.87095040536114
 30
0.0
 10
104.7770339285542
 20
73.8230864387812
 30
0.0
 10
103.365929637607
 20
75.57702001261002
 30
0.0
 10
101.4137936041863
 20
75.78847068872103
 30
0.0
 10
99.46165757076467
 20
75.99992136483141
 30
0.0
 10
97.7077239969365
 20
74.58881707388394
 30
0.0
 10
97.49627332082612
 20
72.63668104046259
 30
0.0
 10
97.28482264471447
 20
70.68454500704222
 30
0.0
 10
98.6959269356629
 20
68.93061143321435
 30
0.0
 10
100.6480629690833
 20
68.7191607571027
 30
0.0
  0
SPLINE
  5
D4
330
5E
100
AcDbEntity
  8
Cut
 62
   179
420
  1842203
370
     9
100
AcDbSpline
210
0.0
220
0.0
230
1.0
 70
    11
 71
     3
 72
    17
 73
    13
 74
     0
 42
0.0000000001
 43
0.0000000001
 12
1.0
 22
0.0
 32
0.0
 13
1.0
 23
0.0
 33
0.0
 40
0.0
 40
0.0
 40
0.0
 40
0.0
 40
1.0
 40
1.0
 40
1.0
 40
2.0
 40
2.0
 40
2.0
 40
3.0
 40
3.0
 40
3.0
 40
4.0
 40
4.0
 40
4.0
 40
4.0
 10
110.6051257620089
 20
53.93965989654424
 30
0.0
 10
112.5572617954299
 20
53.72820922043356
 30
0.0
 10
114.3111953692591
 20
55.1393135113807
 30
0.0
 10
114.5226460453694
 20
57.09144954480204
 30
0.0
 10
114.7340967214801
 20
59.04358557822274
 30
0.0
 10
113.3229924305323
 20
60.79751915205124
 30
0.0
 10
111.3708563971113
 20
61.00896982816161
 30
0.0
 10
109.4187203636906
 20
61.22042050427326
 30
0.0
 10
107.6647867898624
 20
59.80931621332451
 30
0.0
 10
107.4533361137511
 20
57.85718017990413
 30
0.0
 10
107.2418854376411
 20
55.90504414648311
 30
0.0
 10
108.6529897285885
 20
54.15111057265558
 30
0.0
 10
110.6051257620089
 20
53.93965989654424
 30
0.0
  0
SPLINE
  5
D5
330
5E
100
AcDbEntity
  8
Cut
 62
   179
420
  1842203
370
     9
100
AcDbSpline
210
0.0
220
0.0
230
1.0
 70
    11
 71
     3
 72
    17
 73
    13
 74
     0
 42
0.0000000001
 43
0.0000000001
 12
1.0
 22
0.0
 32
0.0
 13
1.0
 23
0.0
 33
0.0
 40
0.0
 40
0.0
 40
0.0
 40
0.0
 40
1.0
 40
1.0
 40
1.0
 40
2.0
 40
2.0
 40
2.0
 40
3.0
 40
3.0
 40
3.0
 40
4.0
 40
4.0
 40
4.0
 40
4.0
 10
113.2704118747531
 20
45.09019018820123
 30
0.0
 10
114.2464798914635
 20
44.98446485014621
 30
0.0
 10
115.1234466783777
 20
45.69001699562106
 30
0.0
 10
115.2291720164334
 20
46.66608501233078
 30
0.0
 10
115.3348973544884
 20
47.6421530290408
 30
0.0
 10
114.6293452090151
 20
48.51911981595538
 30
0.0
 10
113.6532771923038
 20
48.62484515401072
 30
0.0
 10
112.6772091755941
 20
48.7305704920651
 30
0.0
 10
111.8002423886799
 20
48.02501834659217
 30
0.0
 10
111.6945170506248
 20
47.04895032988182
 30
0.0
 10
111.5887917125689
 20
46.07288231317115
 30
0.0
 10
112.2943438580428
 20
45.19591552625722
 30
0.0
 10
113.2704118747531
 20
45.09019018820123
 30
0.0
  0
SPLINE
  5
D6
330
5E
100
AcDbEntity
  8
Cut
 62
   179
420
  1842203
370
     9
100
AcDbSpline
210
0.0
220
0.0
230
1.0
 70
    11
 71
     3
 72
    17
 73
    13
 74
     0
 42
0.0000000001
 43
0.0000000001
 12
1.0
 22
0.0
 32
0.0
 13
1.0
 23
0.0
 33
0.0
 40
0.0
 40
0.0
 40
0.0
 40
0.0
 40
1.0
 40
1.0
 40
1.0
 40
2.0
 40
2.0
 40
2.0
 40
3.0
 40
3.0
 40
3.0
 40
4.0
 40
4.0
 40
4.0
 40
4.0
 10
92.92653582649767
 20
66.53983663226163
 30
0.0
 10
93.90260384320801
 20
66.43411129420565
 30
0.0
 10
94.77957063012259
 20
67.13966343967986
 30
0.0
 10
94.88529596817665
 20
68.11573145639021
 30
0.0
 10
94.99102130623297
 20
69.09179947310088
 30
0.0
 10
94.28546916075906
 20
69.96876626001449
 30
0.0
 10
93.30940114404903
 20
70.07449159807048
 30
0.0
 10
92.33333312733836
 20
70.1802169361255
 30
0.0
 10
91.45636634042411
 20
69.47466479065193
 30
0.0
 10
91.35064100236845
 20
68.49859677394126
 30
0.0
 10
91.24491566431311
 20
67.5225287572309
 30
0.0
 10
91.95046780978731
 20
66.64556197031634
 30
0.0
 10
92.92653582649767
 20
66.53983663226163
 30
0.0
  0
SPLINE
  5
D7
330
5E
100
AcDbEntity
  8
Cut
 62
   179
420
  1842203
370
     9
100
AcDbSpline
210
0.0
220
0.0
230
1.0
 70
    11
 71
     3
 72
    17
 73
    13
 74
     0
 42
0.0000000001
 43
0.0000000001
 12
1.0
 22
0.0
 32
0.0
 13
1.0
 23
0.0
 33
0.0
 40
0.0
 40
0.0
 40
0.0
 40
0.0
 40
1.0
 40
1.0
 40
1.0
 40
2.0
 40
2.0
 40
2.0
 40
3.0
 40
3.0
 40
3.0
 40
4.0
 40
4.0
 40
4.0
 40
4.0
 10
94.42847366070568
 20
75.84117690977266
 30
0.0
 10
95.26159982579361
 20
75.75093468900535
 30
0.0
 10
96.01013780017907
 20
76.35316111499782
 30
0.0
 10
96.10038002094542
 20
77.18628728008446
 30
0.0
 10
96.19062224171081
 20
78.01941344517239
 30
0.0
 10
95.58839581571962
 20
78.76795141955914
 30
0.0
 10
94.75526965063234
 20
78.85819364032453
 30
0.0
 10
93.92214348554442
 20
78.94843586109056
 30
0.0
 10
93.17360551115895
 20
78.34620943509937
 30
0.0
 10
93.08336329039324
 20
77.51308327001112
 30
0.0
 10
92.99312106962688
 20
76.67995710492416
 30
0.0
 10
93.59534749561776
 20
75.9314191305387
 30
0.0
 10
94.42847366070568
 20
75.84117690977266
 30
0.0
  0
SPLINE
  5
D8
330
5E
100
AcDbEntity
  8
Cut
 62
   179
420
  1842203
370
     9
100
AcDbSpline
210
0.0
220
0.0
230
1.0
 70
    11
 71
     3
 72
    17
 73
    13
 74
     0
 42
0.0000000001
 43
0.0000000001
 12
1.0
 22
0.0
 32
0.0
 13
1.0
 23
0.0
 33
0.0
 40
0.0
 40
0.0
 40
0.0
 40
0.0
 40
1.0
 40
1.0
 40
1.0
 40
2.0
 40
2.0
 40
2.0
 40
3.0
 40
3.0
 40
3.0
 40
4.0
 40
4.0
 40
4.0
 40
4.0
 10
103.5615761570964
 20
76.37810847462573
 30
0.0
 10
104.3947023221849
 20
76.2878662538597
 30
0.0
 10
105.1432402965698
 20
76.8900926798509
 30
0.0
 10
105.2334825173361
 20
77.72321884493881
 30
0.0
 10
105.3237247381018
 20
78.55634501002642
 30
0.0
 10
104.7214983121113
 20
79.30488298441253
 30
0.0
 10
103.8883721470233
 20
79.39512520517856
 30
0.0
 10
103.0552459819358
 20
79.4853674259446
 30
0.0
 10
102.3067080075496
 20
78.88314099995276
 30
0.0
 10
102.2164657867843
 20
78.05001483486484
 30
0.0
 10
102.1262235660179
 20
77.21688866977723
 30
0.0
 10
102.7284499920088
 20
76.46835069539242
 30
0.0
 10
103.5615761570964
 20
76.37810847462573
 30
0.0
  0
SPLINE
  5
D9
330
5E
100
AcDbEntity
  8
Cut
 62
   179
420
  1842203
370
     9
100
AcDbSpline
210
0.0
220
0.0
230
1.0
 70
    11
 71
     3
 72
    17
 73
    13
 74
     0
 42
0.0000000001
 43
0.0000000001
 12
1.0
 22
0.0
 32
0.0
 13
1.0
 23
0.0
 33
0.0
 40
0.0
 40
0.0
 40
0.0
 40
0.0
 40
1.0
 40
1.0
 40
1.0
 40
2.0
 40
2.0
 40
2.0
 40
3.0
 40
3.0
 40
3.0
 40
4.0
 40
4.0
 40
4.0
 40
4.0
 10
85.38142661266592
 20
72.66100479429645
 30
0.0
 10
86.21455277775352
 20
72.57076257353074
 30
0.0
 10
86.96309075213931
 20
73.17298899952193
 30
0.0
 10
87.05333297290503
 20
74.00611516460985
 30
0.0
 10
87.14357519367138
 20
74.83924132969713
 30
0.0
 10
86.5413487676805
 20
75.58777930408293
 30
0.0
 10
85.70822260259195
 20
75.67802152484865
 30
0.0
 10
84.87509643750498
 20
75.76826374561468
 30
0.0
 10
84.12655846311952
 20
75.1660373196238
 30
0.0
 10
84.03631624235317
 20
74.33291115453652
 30
0.0
 10
83.94607402158745
 20
73.49978498944796
 30
0.0
 10
84.54830044757833
 20
72.7512470150628
 30
0.0
 10
85.38142661266592
 20
72.66100479429645
 30
0.0
  0
SPLINE
  5
DA
330
5E
100
AcDbEntity
  8
Cut
 62
   179
420
  1842203
370
     9
100
AcDbSpline
210
0.0
220
0.0
230
1.0
 70
    11
 71
     3
 72
    17
 73
    13
 74
     0
 42
0.0000000001
 43
0.0000000001
 12
1.0
 22
0.0
 32
0.0
 13
1.0
 23
0.0
 33
0.0
 40
0.0
 40
0.0
 40
0.0
 40
0.0
 40
1.0
 40
1.0
 40
1.0
 40
2.0
 40
2.0
 40
2.0
 40
3.0
 40
3.0
 40
3.0
 40
4.0
 40
4.0
 40
4.0
 40
4.0
 10
71.02576050974365
 20
67.38586865396414
 30
0.0
 10
71.85888667483157
 20
67.29562643319875
 30
0.0
 10
72.60742464921607
 20
67.89785285919058
 30
0.0
 10
72.6976668699834
 20
68.7309790242769
 30
0.0
 10
72.78790909074942
 20
69.56410518936546
 30
0.0
 10
72.18568266475823
 20
70.31264316374997
 30
0.0
 10
71.35255649966967
 20
70.40288538451696
 30
0.0
 10
70.51943033458207
 20
70.49312760528268
 30
0.0
 10
69.77089236019724
 20
69.89090117929084
 30
0.0
 10
69.68065013943057
 20
69.05777501420356
 30
0.0
 10
69.59040791866518
 20
68.2246488491166
 30
0.0
 10
70.19263434465637
 20
67.47611087472986
 30
0.0
 10
71.02576050974365
 20
67.38586865396414
 30
0.0
  0
SPLINE
  5
DB
330
5E
100
AcDbEntity
  8
Cut
 62
   179
420
  1842203
370
     9
100
AcDbSpline
210
0.0
220
0.0
230
1.0
 70
    11
 71
     3
 72
    17
 73
    13
 74
     0
 42
0.0000000001
 43
0.0000000001
 12
1.0
 22
0.0
 32
0.0
 13
1.0
 23
0.0
 33
0.0
 40
0.0
 40
0.0
 40
0.0
 40
0.0
 40
1.0
 40
1.0
 40
1.0
 40
2.0
 40
2.0
 40
2.0
 40
3.0
 40
3.0
 40
3.0
 40
4.0
 40
4.0
 40
4.0
 40
4.0
 10
60.8584614632992
 20
80.33551591864436
 30
0.0
 10
61.69158762838712
 20
80.24527369787769
 30
0.0
 10
62.44012560277194
 20
80.84750012386888
 30
0.0
 10
62.53036782353862
 20
81.68062628895649
 30
0.0
 10
62.62061004430466
 20
82.51375245404505
 30
0.0
 10
62.01838361831282
 20
83.2622904284302
 30
0.0
 10
61.18525745322554
 20
83.35253264919656
 30
0.0
 10
60.3521312881389
 20
83.44277486996226
 30
0.0
 10
59.60359331375215
 20
82.84054844397075
 30
0.0
 10
59.51335109298643
 20
82.00742227888315
 30
0.0
 10
59.42310887222008
 20
81.17429611379555
 30
0.0
 10
60.02533529821159
 20
80.42575813941008
 30
0.0
 10
60.8584614632992
 20
80.33551591864436
 30
0.0
  0
SPLINE
  5
DC
330
5E
100
AcDbEntity
  8
Cut
 62
   179
420
  1842203
370
     9
100
AcDbSpline
210
0.0
220
0.0
230
1.0
 70
    11
 71
     3
 72
    17
 73
    13
 74
     0
 42
0.0000000001
 43
0.0000000001
 12
1.0
 22
0.0
 32
0.0
 13
1.0
 23
0.0
 33
0.0
 40
0.0
 40
0.0
 40
0.0
 40
0.0
 40
1.0
 40
1.0
 40
1.0
 40
2.0
 40
2.0
 40
2.0
 40
3.0
 40
3.0
 40
3.0
 40
4.0
 40
4.0
 40
4.0
 40
4.0
 10
45.87763848451746
 20
81.10008650827976
 30
0.0
 10
46.71076464960538
 20
81.0098442875134
 30
0.0
 10
47.45930262399053
 20
81.61207071350525
 30
0.0
 10
47.54954484475688
 20
82.44519687859253
 30
0.0
 10
47.6397870655226
 20
83.27832304368013
 30
0.0
 10
47.0375606395314
 20
84.0268610180656
 30
0.0
 10
46.2044344744438
 20
84.11710323883163
 30
0.0
 10
45.37130830935588
 20
84.20734545959766
 30
0.0
 10
44.62277033497105
 20
83.60511903360678
 30
0.0
 10
44.53252811420437
 20
82.77199286851886
 30
0.0
 10
44.44228589343834
 20
81.93886670343159
 30
0.0
 10
45.04451231943018
 20
81.19032872904612
 30
0.0
 10
45.87763848451746
 20
81.10008650827976
 30
0.0
  0
SPLINE
  5
DD
330
5E
100
AcDbEntity
  8
Cut
 62
   179
420
  1842203
370
     9
100
AcDbSpline
210
0.0
220
0.0
230
1.0
 70
    11
 71
     3
 72
    17
 73
    13
 74
     0
 42
0.0000000001
 43
0.0000000001
 12
1.0
 22
0.0
 32
0.0
 13
1.0
 23
0.0
 33
0.0
 40
0.0
 40
0.0
 40
0.0
 40
0.0
 40
1.0
 40
1.0
 40
1.0
 40
2.0
 40
2.0
 40
2.0
 40
3.0
 40
3.0
 40
3.0
 40
4.0
 40
4.0
 40
4.0
 40
4.0
 10
117.58813636844
 20
63.99276665258331
 30
0.0
 10
117.625799663581
 20
64.97382123646298
 30
0.0
 10
116.861029919301
 20
65.79965524736794
 30
0.0
 10
115.8799753354217
 20
65.83731854250868
 30
0.0
 10
114.8989207515417
 20
65.8749818376491
 30
0.0
 10
114.0730867406367
 20
65.11021209336876
 30
0.0
 10
114.035423445496
 20
64.1291575094894
 30
0.0
 10
113.9977601503556
 20
63.14810292561005
 30
0.0
 10
114.7625298946356
 20
62.32226891470541
 30
0.0
 10
115.7435844785156
 20
62.28460561956499
 30
0.0
 10
116.7246390623946
 20
62.24694232442393
 30
0.0
 10
117.5504730732996
 20
63.01171206870396
 30
0.0
 10
117.58813636844
 20
63.99276665258331
 30
0.0
  0
SPLINE
  5
DE
330
5E
100
AcDbEntity
  8
Cut
 62
   179
420
  1842203
370
     9
100
AcDbSpline
210
0.0
220
0.0
230
1.0
 70
    11
 71
     3
 72
    17
 73
    13
 74
     0
 42
0.0000000001
 43
0.0000000001
 12
1.0
 22
0.0
 32
0.0
 13
1.0
 23
0.0
 33
0.0
 40
0.0
 40
0.0
 40
0.0
 40
0.0
 40
1.0
 40
1.0
 40
1.0
 40
2.0
 40
2.0
 40
2.0
 40
3.0
 40
3.0
 40
3.0
 40
4.0
 40
4.0
 40
4.0
 40
4.0
 10
111.8188839824135
 20
71.77655760213175
 30
0.0
 10
112.7632269646379
 20
72.045077531142
 30
0.0
 10
113.3110897971185
 20
73.02829718723049
 30
0.0
 10
113.0425698681089
 20
73.97264016945519
 30
0.0
 10
112.7740499390996
 20
74.91698315167959
 30
0.0
 10
111.7908302830102
 20
75.46484598416019
 30
0.0
 10
110.8464873007858
 20
75.1963260551509
 30
0.0
 10
109.9021443185617
 20
74.92780612614162
 30
0.0
 10
109.3542814860814
 20
73.94458647005217
 30
0.0
 10
109.6228014150904
 20
73.00024348782746
 30
0.0
 10
109.8913213441
 20
72.05590050560339
 30
0.0
 10
110.8745410001895
 20
71.50803767312343
 30
0.0
 10
111.8188839824135
 20
71.77655760213175
 30
0.0
  0
SPLINE
  5
DF
330
5E
100
AcDbEntity
  8
Cut
 62
   179
420
  1842203
370
     9
100
AcDbSpline
210
0.0
220
0.0
230
1.0
 70
    11
 71
     3
 72
    17
 73
    13
 74
     0
 42
0.0000000001
 43
0.0000000001
 12
1.0
 22
0.0
 32
0.0
 13
1.0
 23
0.0
 33
0.0
 40
0.0
 40
0.0
 40
0.0
 40
0.0
 40
1.0
 40
1.0
 40
1.0
 40
2.0
 40
2.0
 40
2.0
 40
3.0
 40
3.0
 40
3.0
 40
4.0
 40
4.0
 40
4.0
 40
4.0
 10
118.5167008763684
 20
76.43187233251403
 30
0.0
 10
118.1580886181808
 20
75.51793367558386
 30
0.0
 10
118.6082696120325
 20
74.48632733200841
 30
0.0
 10
119.522208268961
 20
74.12771507381989
 30
0.0
 10
120.4361469258896
 20
73.76910281563137
 30
0.0
 10
121.467753269467
 20
74.21928380948364
 30
0.0
 10
121.8263655276558
 20
75.13322246641253
 30
0.0
 10
122.1849777858437
 20
76.04716112334174
 30
0.0
 10
121.7347967919908
 20
77.07876746691784
 30
0.0
 10
120.8208581350616
 20
77.43737972510635
 30
0.0
 10
119.906919478134
 20
77.79599198329488
 30
0.0
 10
118.8753131345579
 20
77.34581098944197
 30
0.0
 10
118.5167008763684
 20
76.43187233251403
 30
0.0
  0
SPLINE
  5
E0
330
5E
100
AcDbEntity
  8
Cut
 62
   179
420
  1842203
370
     9
100
AcDbSpline
210
0.0
220
0.0
230
1.0
 70
    11
 71
     3
 72
    17
 73
    13
 74
     0
 42
0.0000000001
 43
0.0000000001
 12
1.0
 22
0.0
 32
0.0
 13
1.0
 23
0.0
 33
0.0
 40
0.0
 40
0.0
 40
0.0
 40
0.0
 40
1.0
 40
1.0
 40
1.0
 40
2.0
 40
2.0
 40
2.0
 40
3.0
 40
3.0
 40
3.0
 40
4.0
 40
4.0
 40
4.0
 40
4.0
 10
127.590300457316
 20
72.04228905825663
 30
0.0
 10
127.2316881991284
 20
71.1283504013271
 30
0.0
 10
127.6818691929807
 20
70.096744057751
 30
0.0
 10
128.5958078499092
 20
69.73813179956248
 30
0.0
 10
129.5097465068381
 20
69.37951954137363
 30
0.0
 10
130.5413528504145
 20
69.8297005352259
 30
0.0
 10
130.8999651086034
 20
70.74363919215575
 30
0.0
 10
131.2585773667916
 20
71.65757784908433
 30
0.0
 10
130.8083963729393
 20
72.68918419266042
 30
0.0
 10
129.8944577160098
 20
73.04779645084926
 30
0.0
 10
128.9805190590812
 20
73.40640870903779
 30
0.0
 10
127.9489127155054
 20
72.95622771518488
 30
0.0
 10
127.590300457316
 20
72.04228905825663
 30
0.0
  0
SPLINE
  5
E1
330
5E
100
AcDbEntity
  8
Cut
 62
   179
420
  1842203
370
     9
100
AcDbSpline
210
0.0
220
0.0
230
1.0
 70
    11
 71
     3
 72
    17
 73
    13
 74
     0
 42
0.0000000001
 43
0.0000000001
 12
1.0
 22
0.0
 32
0.0
 13
1.0
 23
0.0
 33
0.0
 40
0.0
 40
0.0
 40
0.0
 40
0.0
 40
1.0
 40
1.0
 40
1.0
 40
2.0
 40
2.0
 40
2.0
 40
3.0
 40
3.0
 40
3.0
 40
4.0
 40
4.0
 40
4.0
 40
4.0
 10
126.9778508715571
 20
61.71153056752456
 30
0.0
 10
126.6192386133695
 20
60.79759191059534
 30
0.0
 10
127.0694196072215
 20
59.7659855670186
 30
0.0
 10
127.9833582641507
 20
59.40737330883137
 30
0.0
 10
128.8972969210799
 20
59.04876105064188
 30
0.0
 10
129.928903264656
 20
59.4989420444948
 30
0.0
 10
130.2875155228445
 20
60.41288070142401
 30
0.0
 10
130.6461277810324
 20
61.32681935835322
 30
0.0
 10
130.1959467871808
 20
62.35842570192867
 30
0.0
 10
129.2820081302513
 20
62.71703796011784
 30
0.0
 10
128.3680694733227
 20
63.07565021830636
 30
0.0
 10
127.3364631297466
 20
62.62546922445345
 30
0.0
 10
126.9778508715571
 20
61.71153056752456
 30
0.0
  0
SPLINE
  5
E2
330
5E
100
AcDbEntity
  8
Cut
 62
   179
420
  1842203
370
     9
100
AcDbSpline
210
0.0
220
0.0
230
1.0
 70
    11
 71
     3
 72
    17
 73
    13
 74
     0
 42
0.0000000001
 43
0.0000000001
 12
1.0
 22
0.0
 32
0.0
 13
1.0
 23
0.0
 33
0.0
 40
0.0
 40
0.0
 40
0.0
 40
0.0
 40
1.0
 40
1.0
 40
1.0
 40
2.0
 40
2.0
 40
2.0
 40
3.0
 40
3.0
 40
3.0
 40
4.0
 40
4.0
 40
4.0
 40
4.0
 10
134.3621499790423
 20
55.0145171927724
 30
0.0
 10
134.0035377208551
 20
54.10057853584286
 30
0.0
 10
134.453718714707
 20
53.06897219226645
 30
0.0
 10
135.3676573716359
 20
52.71035993407889
 30
0.0
 10
136.2815960285645
 20
52.35174767588941
 30
0.0
 10
137.3132023721412
 20
52.80192866974232
 30
0.0
 10
137.6718146303297
 20
53.71586732667154
 30
0.0
 10
138.0304268885179
 20
54.62980598360043
 30
0.0
 10
137.580245894665
 20
55.66141232717619
 30
0.0
 10
136.6663072377361
 20
56.02002458536472
 30
0.0
 10
135.7523685808079
 20
56.37863684355356
 30
0.0
 10
134.7207622372321
 20
55.92845584970097
 30
0.0
 10
134.3621499790423
 20
55.0145171927724
 30
0.0
  0
SPLINE
  5
E3
330
5E
100
AcDbEntity
  8
Cut
 62
   179
420
  1842203
370
     9
100
AcDbSpline
210
0.0
220
0.0
230
1.0
 70
    11
 71
     3
 72
    17
 73
    13
 74
     0
 42
0.0000000001
 43
0.0000000001
 12
1.0
 22
0.0
 32
0.0
 13
1.0
 23
0.0
 33
0.0
 40
0.0
 40
0.0
 40
0.0
 40
0.0
 40
1.0
 40
1.0
 40
1.0
 40
2.0
 40
2.0
 40
2.0
 40
3.0
 40
3.0
 40
3.0
 40
4.0
 40
4.0
 40
4.0
 40
4.0
 10
136.7492654039032
 20
44.80515777700662
 30
0.0
 10
136.3906531457156
 20
43.89121912007869
 30
0.0
 10
136.8408341395672
 20
42.85961277650163
 30
0.0
 10
137.7547727964965
 20
42.50100051831375
 30
0.0
 10
138.6687114534247
 20
42.14238826012427
 30
0.0
 10
139.7003177970018
 20
42.59256925397814
 30
0.0
 10
140.05893005519
 20
43.50650791090703
 30
0.0
 10
140.4175423133782
 20
44.42044656783528
 30
0.0
 10
139.9673613195262
 20
45.45205291141106
 30
0.0
 10
139.0534226625973
 20
45.81066516960022
 30
0.0
 10
138.1394840056684
 20
46.16927742778907
 30
0.0
 10
137.107877662092
 20
45.71909643393583
 30
0.0
 10
136.7492654039032
 20
44.80515777700662
 30
0.0
  0
SPLINE
  5
E4
330
5E
100
AcDbEntity
  8
Cut
 62
   179
420
  1842203
370
     9
100
AcDbSpline
210
0.0
220
0.0
230
1.0
 70
    11
 71
     3
 72
    17
 73
    13
 74
     0
 42
0.0000000001
 43
0.0000000001
 12
1.0
 22
0.0
 32
0.0
 13
1.0
 23
0.0
 33
0.0
 40
0.0
 40
0.0
 40
0.0
 40
0.0
 40
1.0
 40
1.0
 40
1.0
 40
2.0
 40
2.0
 40
2.0
 40
3.0
 40
3.0
 40
3.0
 40
4.0
 40
4.0
 40
4.0
 40
4.0
 10
121.3598115196749
 20
44.27686325914916
 30
0.0
 10
121.001199261487
 20
43.36292460222059
 30
0.0
 10
121.4513802553393
 20
42.33131825864353
 30
0.0
 10
122.3653189122679
 20
41.97270600045501
 30
0.0
 10
123.2792575691965
 20
41.61409374226616
 30
0.0
 10
124.3108639127725
 20
42.06427473611907
 30
0.0
 10
124.6694761709617
 20
42.97821339304861
 30
0.0
 10
125.0280884291499
 20
43.8921520499775
 30
0.0
 10
124.5779074352973
 20
44.92375839355328
 30
0.0
 10
123.6639687783688
 20
45.28237065174148
 30
0.0
 10
122.7500301214399
 20
45.64098290993096
 30
0.0
 10
121.7184237778634
 20
45.19080191607805
 30
0.0
 10
121.3598115196749
 20
44.27686325914916
 30
0.0
  0
SPLINE
  5
E5
330
5E
100
AcDbEntity
  8
Cut
 62
   179
420
  1842203
370
     9
100
AcDbSpline
210
0.0
220
0.0
230
1.0
 70
    11
 71
     3
 72
    17
 73
    13
 74
     0
 42
0.0000000001
 43
0.0000000001
 12
1.0
 22
0.0
 32
0.0
 13
1.0
 23
0.0
 33
0.0
 40
0.0
 40
0.0
 40
0.0
 40
0.0
 40
1.0
 40
1.0
 40
1.0
 40
2.0
 40
2.0
 40
2.0
 40
3.0
 40
3.0
 40
3.0
 40
4.0
 40
4.0
 40
4.0
 40
4.0
 10
103.4389103366563
 20
51.0519971632085
 30
0.0
 10
103.7074302656668
 20
50.10765418098379
 30
0.0
 10
104.6906499217547
 20
49.55979134850318
 30
0.0
 10
105.6349929039791
 20
49.8283112775128
 30
0.0
 10
106.5793358862041
 20
50.09683120652176
 30
0.0
 10
107.1271987186844
 20
51.08005086261153
 30
0.0
 10
106.8586787896751
 20
52.02439384483656
 30
0.0
 10
106.5901588606645
 20
52.96873682706063
 30
0.0
 10
105.606939204577
 20
53.51659965954124
 30
0.0
 10
104.6625962223517
 20
53.24807973053163
 30
0.0
 10
103.7182532401266
 20
52.9795598015217
 30
0.0
 10
103.170390407647
 20
51.99634014543289
 30
0.0
 10
103.4389103366563
 20
51.0519971632085
 30
0.0
  0
SPLINE
  5
E6
330
5E
100
AcDbEntity
  8
Cut
 62
   179
420
  1842203
370
     9
100
AcDbSpline
210
0.0
220
0.0
230
1.0
 70
    11
 71
     3
 72
    17
 73
    13
 74
     0
 42
0.0000000001
 43
0.0000000001
 12
1.0
 22
0.0
 32
0.0
 13
1.0
 23
0.0
 33
0.0
 40
0.0
 40
0.0
 40
0.0
 40
0.0
 40
1.0
 40
1.0
 40
1.0
 40
2.0
 40
2.0
 40
2.0
 40
3.0
 40
3.0
 40
3.0
 40
4.0
 40
4.0
 40
4.0
 40
4.0
 10
79.01972344859871
 20
63.43612384877113
 30
0.0
 10
79.28824337760864
 20
62.49178086654738
 30
0.0
 10
80.27146303369713
 20
61.94391803406677
 30
0.0
 10
81.21580601592152
 20
62.21243796307606
 30
0.0
 10
82.16014899814623
 20
62.48095789208568
 30
0.0
 10
82.70801183062588
 20
63.4641775481748
 30
0.0
 10
82.43949190161787
 20
64.40852053039983
 30
0.0
 10
82.17097197260698
 20
65.35286351262422
 30
0.0
 10
81.18775231651912
 20
65.90072634510419
 30
0.0
 10
80.24340933429377
 20
65.6322064160949
 30
0.0
 10
79.29906635206939
 20
65.36368648708529
 30
0.0
 10
78.75120351958974
 20
64.38046683099616
 30
0.0
 10
79.01972344859871
 20
63.43612384877113
 30
0.0
  0
SPLINE
  5
E7
330
5E
100
AcDbEntity
  8
Cut
 62
   179
420
  1842203
370
     9
100
AcDbSpline
210
0.0
220
0.0
230
1.0
 70
    11
 71
     3
 72
    17
 73
    13
 74
     0
 42
0.0000000001
 43
0.0000000001
 12
1.0
 22
0.0
 32
0.0
 13
1.0
 23
0.0
 33
0.0
 40
0.0
 40
0.0
 40
0.0
 40
0.0
 40
1.0
 40
1.0
 40
1.0
 40
2.0
 40
2.0
 40
2.0
 40
3.0
 40
3.0
 40
3.0
 40
4.0
 40
4.0
 40
4.0
 40
4.0
 10
70.30102359453379
 20
75.99465927221952
 30
0.0
 10
70.56954352354371
 20
75.05031628999448
 30
0.0
 10
71.55276317963252
 20
74.50245345751419
 30
0.0
 10
72.49710616185659
 20
74.7709733865238
 30
0.0
 10
73.44144914408162
 20
75.03949331553278
 30
0.0
 10
73.98931197656094
 20
76.0227129716219
 30
0.0
 10
73.72079204755262
 20
76.96705595384725
 30
0.0
 10
73.45227211854301
 20
77.91139893607068
 30
0.0
 10
72.4690524624542
 20
78.45926176855161
 30
0.0
 10
71.52470948022949
 20
78.19074183954169
 30
0.0
 10
70.58036649800447
 20
77.92222191053335
 30
0.0
 10
70.03250366552449
 20
76.9390022544439
 30
0.0
 10
70.30102359453379
 20
75.99465927221952
 30
0.0
  0
SPLINE
  5
E8
330
5E
100
AcDbEntity
  8
Cut
 62
   179
420
  1842203
370
     9
100
AcDbSpline
210
0.0
220
0.0
230
1.0
 70
    11
 71
     3
 72
    17
 73
    13
 74
     0
 42
0.0000000001
 43
0.0000000001
 12
1.0
 22
0.0
 32
0.0
 13
1.0
 23
0.0
 33
0.0
 40
0.0
 40
0.0
 40
0.0
 40
0.0
 40
1.0
 40
1.0
 40
1.0
 40
2.0
 40
2.0
 40
2.0
 40
3.0
 40
3.0
 40
3.0
 40
4.0
 40
4.0
 40
4.0
 40
4.0
 10
67.06856348878317
 20
80.86312436915041
 30
0.0
 10
67.3370834177931
 20
79.9187813869257
 30
0.0
 10
68.32030307388126
 20
79.3709185544451
 30
0.0
 10
69.26464605610566
 20
79.63943848345471
 30
0.0
 10
70.20898903833036
 20
79.90795841246367
 30
0.0
 10
70.75685187081098
 20
80.89117806855313
 30
0.0
 10
70.48833194180169
 20
81.83552105077815
 30
0.0
 10
70.21981201279208
 20
82.77986403300223
 30
0.0
 10
69.23659235670358
 20
83.32772686548252
 30
0.0
 10
68.29224937447823
 20
83.0592069364729
 30
0.0
 10
67.34790639225353
 20
82.7906870074636
 30
0.0
 10
66.80004355977324
 20
81.80746735137416
 30
0.0
 10
67.06856348878317
 20
80.86312436915041
 30
0.0
  0
SPLINE
  5
E9
330
5E
100
AcDbEntity
  8
Cut
 62
   179
420
  1842203
370
     9
100
AcDbSpline
210
0.0
220
0.0
230
1.0
 70
    11
 71
     3
 72
    17
 73
    13
 74
     0
 42
0.0000000001
 43
0.0000000001
 12
1.0
 22
0.0
 32
0.0
 13
1.0
 23
0.0
 33
0.0
 40
0.0
 40
0.0
 40
0.0
 40
0.0
 40
1.0
 40
1.0
 40
1.0
 40
2.0
 40
2.0
 40
2.0
 40
3.0
 40
3.0
 40
3.0
 40
4.0
 40
4.0
 40
4.0
 40
4.0
 10
103.0838103654692
 20
60.82955987912697
 30
0.0
 10
103.3523302944788
 20
59.88521689690226
 30
0.0
 10
104.3355499505676
 20
59.33735406442133
 30
0.0
 10
105.2798929327923
 20
59.6058739934303
 30
0.0
 10
106.2242359150164
 20
59.87439392244023
 30
0.0
 10
106.7720987474976
 20
60.85761357852904
 30
0.0
 10
106.5035788184877
 20
61.80195656075439
 30
0.0
 10
106.2350588894777
 20
62.74629954297846
 30
0.0
 10
105.2518392333896
 20
63.29416237545907
 30
0.0
 10
104.3074962511646
 20
63.02564244644881
 30
0.0
 10
103.3631532689405
 20
62.75712251744049
 30
0.0
 10
102.8152904364602
 20
61.77390286135104
 30
0.0
 10
103.0838103654692
 20
60.82955987912697
 30
0.0
  0
SPLINE
  5
EA
330
5E
100
AcDbEntity
  8
Cut
 62
   179
420
  1842203
370
     9
100
AcDbSpline
210
0.0
220
0.0
230
1.0
 70
    11
 71
     3
 72
    17
 73
    13
 74
     0
 42
0.0000000001
 43
0.0000000001
 12
1.0
 22
0.0
 32
0.0
 13
1.0
 23
0.0
 33
0.0
 40
0.0
 40
0.0
 40
0.0
 40
0.0
 40
1.0
 40
1.0
 40
1.0
 40
2.0
 40
2.0
 40
2.0
 40
3.0
 40
3.0
 40
3.0
 40
4.0
 40
4.0
 40
4.0
 40
4.0
 10
95.44189715540777
 20
61.42780339722517
 30
0.0
 10
95.81332967287646
 20
60.12153278806117
 30
0.0
 10
97.17337677787499
 20
59.36369677996494
 30
0.0
 10
98.479647387039
 20
59.73512929743138
 30
0.0
 10
99.78591799620364
 20
60.10656181489782
 30
0.0
 10
100.5437540042995
 20
61.4666089198986
 30
0.0
 10
100.1723214868328
 20
62.77287952906388
 30
0.0
 10
99.80088896936603
 20
64.07915013822756
 30
0.0
 10
98.4408418643659
 20
64.83698614632347
 30
0.0
 10
97.13457125520092
 20
64.46555362885607
 30
0.0
 10
95.82830064603789
 20
64.09412111139027
 30
0.0
 10
95.07046463794133
 20
62.73407400638982
 30
0.0
 10
95.44189715540777
 20
61.42780339722517
 30
0.0
  0
SPLINE
  5
EB
330
5E
100
AcDbEntity
  8
Cut
 62
   179
420
  1842203
370
     9
100
AcDbSpline
210
0.0
220
0.0
230
1.0
 70
    11
 71
     3
 72
    17
 73
    13
 74
     0
 42
0.0000000001
 43
0.0000000001
 12
1.0
 22
0.0
 32
0.0
 13
1.0
 23
0.0
 33
0.0
 40
0.0
 40
0.0
 40
0.0
 40
0.0
 40
1.0
 40
1.0
 40
1.0
 40
2.0
 40
2.0
 40
2.0
 40
3.0
 40
3.0
 40
3.0
 40
4.0
 40
4.0
 40
4.0
 40
4.0
 10
75.87850139824788
 20
69.24576953817834
 30
0.0
 10
76.24993391571624
 20
67.93949892901497
 30
0.0
 10
77.60998102071541
 20
67.1816629209181
 30
0.0
 10
78.9162516298791
 20
67.55309543838487
 30
0.0
 10
80.22252223904405
 20
67.9245279558513
 30
0.0
 10
80.98035824714061
 20
69.28457506085208
 30
0.0
 10
80.60892572967353
 20
70.59084567001705
 30
0.0
 10
80.23749321220708
 20
71.89711627918041
 30
0.0
 10
78.87744610720664
 20
72.65495228727664
 30
0.0
 10
77.571175498042
 20
72.28351976980923
 30
0.0
 10
76.2649048888783
 20
71.91208725234247
 30
0.0
 10
75.50706888078176
 20
70.55204014734203
 30
0.0
 10
75.87850139824788
 20
69.24576953817834
 30
0.0
  0
SPLINE
  5
EC
330
5E
100
AcDbEntity
  8
Cut
 62
   179
420
  1842203
370
     9
100
AcDbSpline
210
0.0
220
0.0
230
1.0
 70
    11
 71
     3
 72
    17
 73
    13
 74
     0
 42
0.0000000001
 43
0.0000000001
 12
1.0
 22
0.0
 32
0.0
 13
1.0
 23
0.0
 33
0.0
 40
0.0
 40
0.0
 40
0.0
 40
0.0
 40
1.0
 40
1.0
 40
1.0
 40
2.0
 40
2.0
 40
2.0
 40
3.0
 40
3.0
 40
3.0
 40
4.0
 40
4.0
 40
4.0
 40
4.0
 10
96.75419370462538
 20
53.61663829027582
 30
0.0
 10
97.12562622209374
 20
52.31036768111149
 30
0.0
 10
98.48567332709227
 20
51.55253167301494
 30
0.0
 10
99.79194393625596
 20
51.92396419048234
 30
0.0
 10
101.0982145454209
 20
52.29539670794846
 30
0.0
 10
101.8560505535175
 20
53.65544381294924
 30
0.0
 10
101.4846180360507
 20
54.96171442211421
 30
0.0
 10
101.1131855185833
 20
56.26798503127788
 30
0.0
 10
99.75313841358317
 20
57.0258210393738
 30
0.0
 10
98.4468678044182
 20
56.65438852190671
 30
0.0
 10
97.14059719525517
 20
56.28295600444123
 30
0.0
 10
96.38276118715926
 20
54.92290889943982
 30
0.0
 10
96.75419370462538
 20
53.61663829027582
 30
0.0
  0
SPLINE
  5
ED
330
5E
100
AcDbEntity
  8
Cut
 62
   179
420
  1842203
370
     9
100
AcDbSpline
210
0.0
220
0.0
230
1.0
 70
    11
 71
     3
 72
    17
 73
    13
 74
     0
 42
0.0000000001
 43
0.0000000001
 12
1.0
 22
0.0
 32
0.0
 13
1.0
 23
0.0
 33
0.0
 40
0.0
 40
0.0
 40
0.0
 40
0.0
 40
1.0
 40
1.0
 40
1.0
 40
2.0
 40
2.0
 40
2.0
 40
3.0
 40
3.0
 40
3.0
 40
4.0
 40
4.0
 40
4.0
 40
4.0
 10
118.2400738120126
 20
57.68304989704293
 30
0.0
 10
118.6115063294809
 20
56.37677928787893
 30
0.0
 10
119.9715534344804
 20
55.61894327978206
 30
0.0
 10
121.2778240436438
 20
55.9903757972485
 30
0.0
 10
122.5840946528087
 20
56.36180831471557
 30
0.0
 10
123.341930660905
 20
57.72185541971636
 30
0.0
 10
122.9704981434385
 20
59.028126028881
 30
0.0
 10
122.5990656259708
 20
60.33439663804468
 30
0.0
 10
121.239018520971
 20
61.09223264614123
 30
0.0
 10
119.932747911806
 20
60.72080012867415
 30
0.0
 10
118.6264773026427
 20
60.34936761120771
 30
0.0
 10
117.8686412945458
 20
58.98932050620726
 30
0.0
 10
118.2400738120126
 20
57.68304989704293
 30
0.0
  0
SPLINE
  5
EE
330
5E
100
AcDbEntity
  8
Cut
 62
   179
420
  1842203
370
     9
100
AcDbSpline
210
0.0
220
0.0
230
1.0
 70
    11
 71
     3
 72
    17
 73
    13
 74
     0
 42
0.0000000001
 43
0.0000000001
 12
1.0
 22
0.0
 32
0.0
 13
1.0
 23
0.0
 33
0.0
 40
0.0
 40
0.0
 40
0.0
 40
0.0
 40
1.0
 40
1.0
 40
1.0
 40
2.0
 40
2.0
 40
2.0
 40
3.0
 40
3.0
 40
3.0
 40
4.0
 40
4.0
 40
4.0
 40
4.0
 10
122.2423002989958
 20
65.15248659891984
 30
0.0
 10
124.1944363324165
 20
64.94103592280882
 30
0.0
 10
125.9483699062447
 20
66.35214021375629
 30
0.0
 10
126.159820582356
 20
68.30427624717667
 30
0.0
 10
126.3712712584667
 20
70.25641228059833
 30
0.0
 10
124.9601669675189
 20
72.01034585442619
 30
0.0
 10
123.0080309340982
 20
72.2217965305372
 30
0.0
 10
121.0558949006775
 20
72.43324720664756
 30
0.0
 10
119.301961326849
 20
71.02214291570074
 30
0.0
 10
119.0905106507386
 20
69.07000688227909
 30
0.0
 10
118.8790599746276
 20
67.1178708488587
 30
0.0
 10
120.2901642655747
 20
65.3639372750302
 30
0.0
 10
122.2423002989958
 20
65.15248659891984
 30
0.0
  0
SPLINE
  5
EF
330
5E
100
AcDbEntity
  8
Cut
 62
   179
420
  1842203
370
     9
100
AcDbSpline
210
0.0
220
0.0
230
1.0
 70
    11
 71
     3
 72
    17
 73
    13
 74
     0
 42
0.0000000001
 43
0.0000000001
 12
1.0
 22
0.0
 32
0.0
 13
1.0
 23
0.0
 33
0.0
 40
0.0
 40
0.0
 40
0.0
 40
0.0
 40
1.0
 40
1.0
 40
1.0
 40
2.0
 40
2.0
 40
2.0
 40
3.0
 40
3.0
 40
3.0
 40
4.0
 40
4.0
 40
4.0
 40
4.0
 10
141.1360673488909
 20
31.19987346007721
 30
0.0
 10
143.0882033823113
 20
30.98842278396652
 30
0.0
 10
144.8421369561395
 20
32.39952707491398
 30
0.0
 10
145.0535876322508
 20
34.35166310833564
 30
0.0
 10
145.2650383083612
 20
36.30379914175602
 30
0.0
 10
143.8539340174138
 20
38.05773271558421
 30
0.0
 10
141.9017979839927
 20
38.26918339169553
 30
0.0
 10
139.949661950572
 20
38.4806340678059
 30
0.0
 10
138.1957283767442
 20
37.06952977685812
 30
0.0
 10
137.9842777006328
 20
35.11739374343742
 30
0.0
 10
137.7728270245225
 20
33.16525771001704
 30
0.0
 10
139.1839313154696
 20
31.41132413618789
 30
0.0
 10
141.1360673488909
 20
31.19987346007721
 30
0.0
  0
SPLINE
  5
F0
330
5E
100
AcDbEntity
  8
Cut
 62
   179
420
  1842203
370
     9
100
AcDbSpline
210
0.0
220
0.0
230
1.0
 70
    11
 71
     3
 72
    17
 73
    13
 74
     0
 42
0.0000000001
 43
0.0000000001
 12
1.0
 22
0.0
 32
0.0
 13
1.0
 23
0.0
 33
0.0
 40
0.0
 40
0.0
 40
0.0
 40
0.0
 40
1.0
 40
1.0
 40
1.0
 40
2.0
 40
2.0
 40
2.0
 40
3.0
 40
3.0
 40
3.0
 40
4.0
 40
4.0
 40
4.0
 40
4.0
 10
130.9566312238494
 20
36.49834468141497
 30
0.0
 10
132.9087672572694
 20
36.28689400530396
 30
0.0
 10
134.6627008310983
 20
37.69799829625175
 30
0.0
 10
134.8741515072089
 20
39.65013432967277
 30
0.0
 10
135.0856021833193
 20
41.60227036309347
 30
0.0
 10
133.6744978923722
 20
43.35620393692165
 30
0.0
 10
131.7223618589515
 20
43.56765461303234
 30
0.0
 10
129.7702258255305
 20
43.77910528914303
 30
0.0
 10
128.0162922517026
 20
42.36800099819524
 30
0.0
 10
127.8048415755906
 20
40.41586496477518
 30
0.0
 10
127.5933908994806
 20
38.46372893135352
 30
0.0
 10
129.004495190428
 20
36.70979535752598
 30
0.0
 10
130.9566312238494
 20
36.49834468141497
 30
0.0
  0
SPLINE
  5
F1
330
5E
100
AcDbEntity
  8
Cut
 62
   179
420
  1842203
370
     9
100
AcDbSpline
210
0.0
220
0.0
230
1.0
 70
    11
 71
     3
 72
    17
 73
    13
 74
     0
 42
0.0000000001
 43
0.0000000001
 12
1.0
 22
0.0
 32
0.0
 13
1.0
 23
0.0
 33
0.0
 40
0.0
 40
0.0
 40
0.0
 40
0.0
 40
1.0
 40
1.0
 40
1.0
 40
2.0
 40
2.0
 40
2.0
 40
3.0
 40
3.0
 40
3.0
 40
4.0
 40
4.0
 40
4.0
 40
4.0
 10
127.127410274497
 20
47.1653594924279
 30
0.0
 10
129.8484295135065
 20
46.87062523828342
 30
0.0
 10
132.2931807586168
 20
48.83751784114644
 30
0.0
 10
132.5879150127622
 20
51.55853708015626
 30
0.0
 10
132.8826492669064
 20
54.27955631916512
 30
0.0
 10
130.9157566640437
 20
56.72430756427636
 30
0.0
 10
128.1947374250342
 20
57.01904181842116
 30
0.0
 10
125.4737181860247
 20
57.31377607256596
 30
0.0
 10
123.0289669409135
 20
55.34688346970294
 30
0.0
 10
122.7342326867684
 20
52.62586423069344
 30
0.0
 10
122.4394984326242
 20
49.90484499168362
 30
0.0
 10
124.4063910354879
 20
47.4600937465727
 30
0.0
 10
127.127410274497
 20
47.1653594924279
 30
0.0
  0
ENDBLK
  5
61
330
5E
100
AcDbEntity
  8
0
100
AcDbBlockEnd
  0
ENDSEC
  0
SECTION
  2
ENTITIES
  0
POLYLINE
  5
41
330
1F
100
AcDbEntity
  8
Cut
 62
   179
420
  1842203
370
     9
100
AcDb2dPolyline
 66
     1
 10
0.0
 20
0.0
 30
0.0
  0
VERTEX
  5
42
330
41
100
AcDbEntity
  8
Cut
 62
   179
420
  1842203
370
     9
100
AcDbVertex
100
AcDb2dVertex
 10
66.52384142618071
 20
-69.5383546099083
 30
0.0
  0
VERTEX
  5
43
330
41
100
AcDbEntity
  8
Cut
 62
   179
420
  1842203
370
     9
100
AcDbVertex
100
AcDb2dVertex
 10
66.52455197712455
 20
-69.53837614175508
 30
0.0
  0
VERTEX
  5
44
330
41
100
AcDbEntity
  8
Cut
 62
   179
420
  1842203
370
     9
100
AcDbVertex
100
AcDb2dVertex
 10
66.5243581905035
 20
-69.53785937743228
 30
0.0
  0
VERTEX
  5
45
330
41
100
AcDbEntity
  8
Cut
 62
   179
420
  1842203
370
     9
100
AcDbVertex
100
AcDb2dVertex
 10
75.9250117729512
 20
-60.56205066385593
 30
0.0
  0
VERTEX
  5
46
330
41
100
AcDbEntity
  8
Cut
 62
   179
420
  1842203
370
     9
100
AcDbVertex
100
AcDb2dVertex
 10
91.87806471357014
 20
-15.75395453112349
 30
0.0
  0
VERTEX
  5
47
330
41
100
AcDbEntity
  8
Cut
 62
   179
420
  1842203
370
     9
100
AcDbVertex
100
AcDb2dVertex
 10
90.94263516193767
 20
-2.518371377422833
 30
0.0
  0
VERTEX
  5
48
330
41
100
AcDbEntity
  8
Cut
 62
   179
420
  1842203
370
     9
100
AcDbVertex
100
AcDb2dVertex
 10
90.93742445501623
 20
-2.511395059065202
 30
0.0
  0
VERTEX
  5
49
330
41
100
AcDbEntity
  8
Cut
 62
   179
420
  1842203
370
     9
100
AcDbVertex
100
AcDb2dVertex
 10
90.94323805364759
 20
-2.517833081253263
 30
0.0
  0
VERTEX
  5
4A
330
41
100
AcDbEntity
  8
Cut
 62
   179
420
  1842203
370
     9
100
AcDbVertex
100
AcDb2dVertex
 10
103.6165816241555
 20
-4.677326590641775
 30
0.0
  0
VERTEX
  5
4B
330
41
100
AcDbEntity
  8
Cut
 62
   179
420
  1842203
370
     9
100
AcDbVertex
100
AcDb2dVertex
 10
149.8217501035435
 20
6.607471244536158
 30
0.0
  0
VERTEX
  5
4C
330
41
100
AcDbEntity
  8
Cut
 62
   179
420
  1842203
370
     9
100
AcDbVertex
100
AcDb2dVertex
 10
160.1093219868227
 20
14.91521134798223
 30
0.0
  0
VERTEX
  5
4D
330
41
100
AcDbEntity
  8
Cut
 62
   179
420
  1842203
370
     9
100
AcDbVertex
100
AcDb2dVertex
 10
160.1098602829922
 20
14.91495296582083
 30
0.0
  0
VERTEX
  5
4E
330
41
100
AcDbEntity
  8
Cut
 62
   179
420
  1842203
370
     9
100
AcDbVertex
100
AcDb2dVertex
 10
160.1098602829922
 20
14.91564198491788
 30
0.0
  0
VERTEX
  5
4F
330
41
100
AcDbEntity
  8
Cut
 62
   179
420
  1842203
370
     9
100
AcDbVertex
100
AcDb2dVertex
 10
160.1104631747021
 20
14.91613721739389
 30
0.0
  0
VERTEX
  5
50
330
41
100
AcDbEntity
  8
Cut
 62
   179
420
  1842203
370
     9
100
AcDbVertex
100
AcDb2dVertex
 10
160.1098602829922
 20
14.91643866324885
 30
0.0
  0
VERTEX
  5
51
330
41
100
AcDbEntity
  8
Cut
 62
   179
420
  1842203
370
     9
100
AcDbVertex
100
AcDb2dVertex
 10
160.1098602829922
 20
30.4780426293566
 30
0.0
  0
VERTEX
  5
52
330
41
100
AcDbEntity
  8
Cut
 62
   179
420
  1842203
370
     9
100
AcDbVertex
100
AcDb2dVertex
 10
141.9337733531293
 20
74.43136750850466
 30
0.0
  0
VERTEX
  5
53
330
41
100
AcDbEntity
  8
Cut
 62
   179
420
  1842203
370
     9
100
AcDbVertex
100
AcDb2dVertex
 10
133.337700289414
 20
81.03074935635568
 30
0.0
  0
VERTEX
  5
54
330
41
100
AcDbEntity
  8
Cut
 62
   179
420
  1842203
370
     9
100
AcDbVertex
100
AcDb2dVertex
 10
131.0918856062738
 20
86.4695431307664
 30
0.0
  0
VERTEX
  5
55
330
41
100
AcDbEntity
  8
Cut
 62
   179
420
  1842203
370
     9
100
AcDbVertex
100
AcDb2dVertex
 10
31.19029617405457
 20
97.09029881116241
 30
0.0
  0
VERTEX
  5
56
330
41
100
AcDbEntity
  8
Cut
 62
   179
420
  1842203
370
     9
100
AcDbVertex
100
AcDb2dVertex
 10
3.494915185969737
 20
94.38568353677347
 30
0.0
  0
VERTEX
  5
57
330
41
100
AcDbEntity
  8
Cut
 62
   179
420
  1842203
370
     9
100
AcDbVertex
100
AcDb2dVertex
 10
3.494915185970058
 20
-36.14209420837237
 30
0.0
  0
VERTEX
  5
58
330
41
100
AcDbEntity
  8
Cut
 62
   179
420
  1842203
370
     9
100
AcDbVertex
100
AcDb2dVertex
 10
10.90337770853201
 20
-46.37245597474924
 30
0.0
  0
VERTEX
  5
59
330
41
100
AcDbEntity
  8
Cut
 62
   179
420
  1842203
370
     9
100
AcDbVertex
100
AcDb2dVertex
 10
52.76634783831117
 20
-68.95023374688257
 30
0.0
  0
VERTEX
  5
5A
330
41
100
AcDbEntity
  8
Cut
 62
   179
420
  1842203
370
     9
100
AcDbVertex
100
AcDb2dVertex
 10
66.5230878115433
 20
-69.53831154621473
 30
0.0
  0
VERTEX
  5
5B
330
41
100
AcDbEntity
  8
Cut
 62
   179
420
  1842203
370
     9
100
AcDbVertex
100
AcDb2dVertex
 10
66.52332466185793
 20
-69.5388498423843
 30
0.0
  0
VERTEX
  5
5C
330
41
100
AcDbEntity
  8
Cut
 62
   179
420
  1842203
370
     9
100
AcDbVertex
100
AcDb2dVertex
 10
66.52384142618071
 20
-69.5383546099083
 30
0.0
  0
SEQEND
  5
5D
330
41
100
AcDbEntity
  8
Cut
 62
   179
420
  1842203
370
     9
  0
INSERT
  5
5F
330
1F
100
AcDbEntity
  8
Cut
100
AcDbBlockReference
  2
block 2
 10
0.0
 20
0.0
 30
0.0
  0
POLYLINE
  5
F3
330
1F
100
AcDbEntity
  8
Ritzen
 62
    12
420
 14877971
370
     9
100
AcDb2dPolyline
 66
     1
 10
0.0
 20
0.0
 30
0.0
  0
VERTEX
  5
F4
330
F3
100
AcDbEntity
  8
Ritzen
 62
    12
420
 14877971
370
     9
100
AcDbVertex
100
AcDb2dVertex
 10
3.494915185969737
 20
94.38569071405658
 30
0.0
  0
VERTEX
  5
F5
330
F3
100
AcDbEntity
  8
Ritzen
 62
    12
420
 14877971
370
     9
100
AcDbVertex
100
AcDb2dVertex
 10
133.337700289414
 20
81.03074935635568
 30
0.0
  0
VERTEX
  5
F6
330
F3
100
AcDbEntity
  8
Ritzen
 62
    12
420
 14877971
370
     9
100
AcDbVertex
100
AcDb2dVertex
 10
160.1093219868227
 20
14.91521134798223
 30
0.0
  0
VERTEX
  5
F7
330
F3
100
AcDbEntity
  8
Ritzen
 62
    12
420
 14877971
370
     9
100
AcDbVertex
100
AcDb2dVertex
 10
3.494915185969737
 20
94.38569071405658
 30
0.0
  0
SEQEND
  5
F8
330
F3
100
AcDbEntity
  8
Ritzen
 62
    12
420
 14877971
370
     9
  0
POLYLINE
  5
F9
330
1F
100
AcDbEntity
  8
Ritzen
 62
    12
420
 14877971
370
     9
100
AcDb2dPolyline
 66
     1
 10
0.0
 20
0.0
 30
0.0
  0
VERTEX
  5
FA
330
F9
100
AcDbEntity
  8
Ritzen
 62
    12
420
 14877971
370
     9
100
AcDbVertex
100
AcDb2dVertex
 10
3.494915185970058
 20
-36.14209420837237
 30
0.0
  0
VERTEX
  5
FB
330
F9
100
AcDbEntity
  8
Ritzen
 62
    12
420
 14877971
370
     9
100
AcDbVertex
100
AcDb2dVertex
 10
66.5243581905035
 20
-69.53785937743228
 30
0.0
  0
VERTEX
  5
FC
330
F9
100
AcDbEntity
  8
Ritzen
 62
    12
420
 14877971
370
     9
100
AcDbVertex
100
AcDb2dVertex
 10
3.494915185969737
 20
94.38569071405658
 30
0.0
  0
VERTEX
  5
FD
330
F9
100
AcDbEntity
  8
Ritzen
 62
    12
420
 14877971
370
     9
100
AcDbVertex
100
AcDb2dVertex
 10
90.93742445501623
 20
-2.511395059065202
 30
0.0
  0
VERTEX
  5
FE
330
F9
100
AcDbEntity
  8
Ritzen
 62
    12
420
 14877971
370
     9
100
AcDbVertex
100
AcDb2dVertex
 10
160.1093219868227
 20
14.91521134798223
 30
0.0
  0
SEQEND
  5
FF
330
F9
100
AcDbEntity
  8
Ritzen
 62
    12
420
 14877971
370
     9
  0
POLYLINE
  5
100
330
1F
100
AcDbEntity
  8
Ritzen
 62
    12
420
 14877971
370
     9
100
AcDb2dPolyline
 66
     1
 10
0.0
 20
0.0
 30
0.0
  0
VERTEX
  5
101
330
100
100
AcDbEntity
  8
Ritzen
 62
    12
420
 14877971
370
     9
100
AcDbVertex
100
AcDb2dVertex
 10
90.93742445501623
 20
-2.511395059065202
 30
0.0
  0
VERTEX
  5
102
330
100
100
AcDbEntity
  8
Ritzen
 62
    12
420
 14877971
370
     9
100
AcDbVertex
100
AcDb2dVertex
 10
66.5243581905035
 20
-69.53785937743228
 30
0.0
  0
SEQEND
  5
103
330
100
100
AcDbEntity
  8
Ritzen
 62
    12
420
 14877971
370
     9
  0
ENDSEC
  0
SECTION
  2
OBJECTS
  0
DICTIONARY
  5
C
330
0
100
AcDbDictionary
281
     1
  3
ACAD_GROUP
350
D
  3
ACAD_LAYOUT
350
1A
  3
ACAD_MATERIAL
350
3B
  3
ACAD_MLEADERSTYLE
350
105
  3
ACAD_MLINESTYLE
350
17
  3
ACAD_PLOTSETTINGS
350
19
  3
ACAD_PLOTSTYLENAME
350
E
  3
ACAD_TABLESTYLE
350
104
  3
ACAD_VISUALSTYLE
350
2A
  0
SUN
  5
3F
330
29
100
AcDbSun
 90
        1
290
     0
 63
     7
421
 16777215
 40
1.0
291
     1
 91
  2455826
 92
 54000000
292
     0
 70
     2
 71
   256
280
     1
  0
DICTIONARY
  5
D
102
{ACAD_REACTORS
330
C
102
}
330
C
100
AcDbDictionary
281
     1
  0
DICTIONARY
  5
1A
102
{ACAD_REACTORS
330
C
102
}
330
C
100
AcDbDictionary
281
     1
  3
Layout1
350
1E
  3
Layout2
350
26
  3
Model
350
22
  0
DICTIONARY
  5
3B
102
{ACAD_REACTORS
330
C
102
}
330
C
100
AcDbDictionary
281
     1
  3
ByBlock
350
3D
  3
ByLayer
350
3C
  3
Global
350
3E
  0
DICTIONARY
  5
105
102
{ACAD_REACTORS
330
C
102
}
330
C
100
AcDbDictionary
281
     1
  0
DICTIONARY
  5
17
102
{ACAD_REACTORS
330
C
102
}
330
C
100
AcDbDictionary
281
     1
  3
Standard
350
18
  0
DICTIONARY
  5
19
102
{ACAD_REACTORS
330
C
102
}
330
C
100
AcDbDictionary
281
     1
  0
ACDBDICTIONARYWDFLT
  5
E
102
{ACAD_REACTORS
330
C
102
}
330
C
100
AcDbDictionary
281
     1
  3
Normal
350
F
100
AcDbDictionaryWithDefault
340
F
  0
DICTIONARY
  5
104
102
{ACAD_REACTORS
330
C
102
}
330
C
100
AcDbDictionary
281
     1
  0
DICTIONARY
  5
2A
102
{ACAD_REACTORS
330
C
102
}
330
C
100
AcDbDictionary
281
     1
  3
2dWireframe
350
2F
  3
3D Hidden
350
31
  3
3dWireframe
350
30
  3
Basic
350
32
  3
Brighten
350
36
  3
ColorChange
350
3A
  3
Conceptual
350
34
  3
Dim
350
35
  3
Facepattern
350
39
  3
Flat
350
2B
  3
FlatWithEdges
350
2C
  3
Gouraud
350
2D
  3
GouraudWithEdges
350
2E
  3
Linepattern
350
38
  3
Realistic
350
33
  3
Thicken
350
37
  0
LAYOUT
  5
1E
102
{ACAD_REACTORS
330
1A
102
}
330
1A
100
AcDbPlotSettings
  1

  2
none_device
  4

  6

 40
0.0
 41
0.0
 42
0.0
 43
0.0
 44
0.0
 45
0.0
 46
0.0
 47
0.0
 48
0.0
 49
0.0
140
0.0
141
0.0
142
1.0
143
1.0
 70
   688
 72
     0
 73
     0
 74
     5
  7

 75
    16
 76
     0
 77
     2
 78
   300
147
1.0
148
0.0
149
0.0
100
AcDbLayout
  1
Layout1
 70
     1
 71
     1
 10
0.0
 20
0.0
 11
12.0
 21
9.0
 12
0.0
 22
0.0
 32
0.0
 14
1.000000000000000E+20
 24
1.000000000000000E+20
 34
1.000000000000000E+20
 15
-1.000000000000000E+20
 25
-1.000000000000000E+20
 35
-1.000000000000000E+20
146
0.0
 13
0.0
 23
0.0
 33
0.0
 16
1.0
 26
0.0
 36
0.0
 17
0.0
 27
1.0
 37
0.0
 76
     0
330
1B
  0
LAYOUT
  5
26
102
{ACAD_REACTORS
330
1A
102
}
330
1A
100
AcDbPlotSettings
  1

  2
none_device
  4

  6

 40
0.0
 41
0.0
 42
0.0
 43
0.0
 44
0.0
 45
0.0
 46
0.0
 47
0.0
 48
0.0
 49
0.0
140
0.0
141
0.0
142
1.0
143
1.0
 70
   688
 72
     0
 73
     0
 74
     5
  7

 75
    16
 76
     0
 77
     2
 78
   300
147
1.0
148
0.0
149
0.0
100
AcDbLayout
  1
Layout2
 70
     1
 71
     2
 10
0.0
 20
0.0
 11
0.0
 21
0.0
 12
0.0
 22
0.0
 32
0.0
 14
0.0
 24
0.0
 34
0.0
 15
0.0
 25
0.0
 35
0.0
146
0.0
 13
0.0
 23
0.0
 33
0.0
 16
1.0
 26
0.0
 36
0.0
 17
0.0
 27
1.0
 37
0.0
 76
     0
330
23
  0
LAYOUT
  5
22
102
{ACAD_REACTORS
330
1A
102
}
330
1A
100
AcDbPlotSettings
  1

  2
none_device
  4

  6

 40
0.0
 41
0.0
 42
0.0
 43
0.0
 44
0.0
 45
0.0
 46
0.0
 47
0.0
 48
0.0
 49
0.0
140
0.0
141
0.0
142
1.0
143
1.0
 70
  1712
 72
     0
 73
     0
 74
     0
  7

 75
     0
 76
     0
 77
     2
 78
   300
147
1.0
148
0.0
149
0.0
100
AcDbLayout
  1
Model
 70
     1
 71
     0
 10
0.0
 20
0.0
 11
12.0
 21
9.0
 12
0.0
 22
0.0
 32
0.0
 14
1.000000000000000E+20
 24
1.000000000000000E+20
 34
1.000000000000000E+20
 15
-1.000000000000000E+20
 25
-1.000000000000000E+20
 35
-1.000000000000000E+20
146
0.0
 13
0.0
 23
0.0
 33
0.0
 16
1.0
 26
0.0
 36
0.0
 17
0.0
 27
1.0
 37
0.0
 76
     0
330
1F
331
29
  0
MATERIAL
  5
3D
102
{ACAD_REACTORS
330
3B
102
}
330
3B
100
AcDbMaterial
  1
ByBlock
 72
     1
 94
      127
  0
MATERIAL
  5
3C
102
{ACAD_REACTORS
330
3B
102
}
330
3B
100
AcDbMaterial
  1
ByLayer
 72
     1
 94
      127
  0
MATERIAL
  5
3E
102
{ACAD_REACTORS
330
3B
102
}
330
3B
100
AcDbMaterial
  1
Global
 72
     1
 94
      127
  0
MLINESTYLE
  5
18
102
{ACAD_REACTORS
330
17
102
}
330
17
100
AcDbMlineStyle
  2
Standard
 70
     0
  3

 62
   256
 51
90.0
 52
90.0
 71
     2
 49
0.5
 62
   256
  6
BYLAYER
 49
-0.5
 62
   256
  6
BYLAYER
  0
ACDBPLACEHOLDER
  5
F
102
{ACAD_REACTORS
330
E
102
}
330
E
  0
VISUALSTYLE
  5
2F
102
{ACAD_REACTORS
330
2A
102
}
330
2A
100
AcDbVisualStyle
  2
2dWireframe
 70
     4
177
     2
291
     0
 71
     0
176
     1
 72
     2
176
     1
 73
     0
176
     1
 90
        0
176
     1
 40
-0.6
176
     1
 41
-30.0
176
     1
 62
     5
 63
     7
421
 16777215
176
     1
 74
     1
176
     1
 91
        4
176
     1
 64
     7
176
     1
 65
   257
176
     1
 75
     1
176
     1
175
     1
176
     1
 42
1.0
176
     1
 92
        0
176
     1
 66
   257
176
     1
 43
1.0
176
     1
 76
     1
176
     1
 77
     6
176
     1
 78
     2
176
     1
 67
     7
176
     1
 79
     5
176
     1
170
     0
176
     1
171
     0
176
     1
290
     0
176
     1
 93
        1
176
     1
 44
0.0
176
     1
173
     0
176
     1
  0
VISUALSTYLE
  5
31
102
{ACAD_REACTORS
330
2A
102
}
330
2A
100
AcDbVisualStyle
  2
3D Hidden
 70
     6
177
     2
291
     0
 71
     1
176
     1
 72
     2
176
     1
 73
     2
176
     1
 90
        0
176
     1
 40
-0.6
176
     1
 41
-30.0
176
     1
 62
     5
 63
     7
421
 16777215
176
     1
 74
     2
176
     1
 91
        2
176
     1
 64
     7
176
     1
 65
   257
176
     1
 75
     2
176
     1
175
     1
176
     1
 42
40.0
176
     1
 92
        0
176
     1
 66
   257
176
     1
 43
1.0
176
     1
 76
     1
176
     1
 77
     6
176
     1
 78
     2
176
     1
 67
     7
176
     1
 79
     3
176
     1
170
     0
176
     1
171
     0
176
     1
290
     0
176
     1
 93
        1
176
     1
 44
0.0
176
     1
173
     0
176
     1
  0
VISUALSTYLE
  5
30
102
{ACAD_REACTORS
330
2A
102
}
330
2A
100
AcDbVisualStyle
  2
3dWireframe
 70
     5
177
     2
291
     0
 71
     0
176
     1
 72
     2
176
     1
 73
     0
176
     1
 90
        0
176
     1
 40
-0.6
176
     1
 41
-30.0
176
     1
 62
     5
 63
     7
421
 16777215
176
     1
 74
     1
176
     1
 91
        4
176
     1
 64
     7
176
     1
 65
   257
176
     1
 75
     1
176
     1
175
     1
176
     1
 42
1.0
176
     1
 92
        0
176
     1
 66
   257
176
     1
 43
1.0
176
     1
 76
     1
176
     1
 77
     6
176
     1
 78
     2
176
     1
 67
     7
176
     1
 79
     5
176
     1
170
     0
176
     1
171
     0
176
     1
290
     0
176
     1
 93
        1
176
     1
 44
0.0
176
     1
173
     0
176
     1
  0
VISUALSTYLE
  5
32
102
{ACAD_REACTORS
330
2A
102
}
330
2A
100
AcDbVisualStyle
  2
Basic
 70
     7
177
     2
291
     1
 71
     1
176
     1
 72
     0
176
     1
 73
     1
176
     1
 90
        0
176
     1
 40
-0.6
176
     1
 41
-30.0
176
     1
 62
     5
 63
     7
421
 16777215
176
     1
 74
     0
176
     1
 91
        4
176
     1
 64
     7
176
     1
 65
   257
176
     1
 75
     1
176
     1
175
     1
176
     1
 42
1.0
176
     1
 92
        8
176
     1
 66
     7
176
     1
 43
1.0
176
     1
 76
     1
176
     1
 77
     6
176
     1
 78
     2
176
     1
 67
     7
176
     1
 79
     5
176
     1
170
     0
176
     1
171
     0
176
     1
290
     0
176
     1
 93
        1
176
     1
 44
0.0
176
     1
173
     0
176
     1
  0
VISUALSTYLE
  5
36
102
{ACAD_REACTORS
330
2A
102
}
330
2A
100
AcDbVisualStyle
  2
Brighten
 70
    12
177
     2
291
     1
 71
     2
176
     1
 72
     2
176
     1
 73
     0
176
     1
 90
        0
176
     1
 40
-0.6
176
     1
 41
-30.0
176
     1
 62
     5
 63
     7
421
 16777215
176
     1
 74
     1
176
     1
 91
        4
176
     1
 64
     7
176
     1
 65
   257
176
     1
 75
     1
176
     1
175
     1
176
     1
 42
1.0
176
     1
 92
        8
176
     1
 66
     7
176
     1
 43
1.0
176
     1
 76
     1
176
     1
 77
     6
176
     1
 78
     2
176
     1
 67
     7
176
     1
 79
     5
176
     1
170
     0
176
     1
171
     0
176
     1
290
     0
176
     1
 93
        1
176
     1
 44
50.0
176
     1
173
     0
176
     1
  0
VISUALSTYLE
  5
3A
102
{ACAD_REACTORS
330
2A
102
}
330
2A
100
AcDbVisualStyle
  2
ColorChange
 70
    16
177
     2
291
     1
 71
     2
176
     1
 72
     2
176
     1
 73
     3
176
     1
 90
        0
176
     1
 40
-0.6
176
     1
 41
-30.0
176
     1
 62
     5
 63
     8
421
  8421504
176
     1
 74
     1
176
     1
 91
        4
176
     1
 64
     7
176
     1
 65
   257
176
     1
 75
     1
176
     1
175
     1
176
     1
 42
1.0
176
     1
 92
        8
176
     1
 66
     8
424
  8421504
176
     1
 43
1.0
176
     1
 76
     1
176
     1
 77
     6
176
     1
 78
     2
176
     1
 67
     7
176
     1
 79
     5
176
     1
170
     0
176
     1
171
     0
176
     1
290
     0
176
     1
 93
        1
176
     1
 44
0.0
176
     1
173
     0
176
     1
  0
VISUALSTYLE
  5
34
102
{ACAD_REACTORS
330
2A
102
}
330
2A
100
AcDbVisualStyle
  2
Conceptual
 70
     9
177
     2
291
     0
 71
     3
176
     1
 72
     2
176
     1
 73
     0
176
     1
 90
        0
176
     1
 40
-0.6
176
     1
 41
-30.0
176
     1
 62
     5
 63
     7
421
 16777215
176
     1
 74
     2
176
     1
 91
        2
176
     1
 64
     7
176
     1
 65
   257
176
     1
 75
     1
176
     1
175
     1
176
     1
 42
40.0
176
     1
 92
        8
176
     1
 66
     7
176
     1
 43
1.0
176
     1
 76
     1
176
     1
 77
     6
176
     1
 78
     2
176
     1
 67
     7
176
     1
 79
     3
176
     1
170
     0
176
     1
171
     0
176
     1
290
     0
176
     1
 93
        1
176
     1
 44
0.0
176
     1
173
     0
176
     1
  0
VISUALSTYLE
  5
35
102
{ACAD_REACTORS
330
2A
102
}
330
2A
100
AcDbVisualStyle
  2
Dim
 70
    11
177
     2
291
     1
 71
     2
176
     1
 72
     2
176
     1
 73
     0
176
     1
 90
        0
176
     1
 40
-0.6
176
     1
 41
-30.0
176
     1
 62
     5
 63
     7
421
 16777215
176
     1
 74
     1
176
     1
 91
        4
176
     1
 64
     7
176
     1
 65
   257
176
     1
 75
     1
176
     1
175
     1
176
     1
 42
1.0
176
     1
 92
        8
176
     1
 66
     7
176
     1
 43
1.0
176
     1
 76
     1
176
     1
 77
     6
176
     1
 78
     2
176
     1
 67
     7
176
     1
 79
     5
176
     1
170
     0
176
     1
171
     0
176
     1
290
     0
176
     1
 93
        1
176
     1
 44
-50.0
176
     1
173
     0
176
     1
  0
VISUALSTYLE
  5
39
102
{ACAD_REACTORS
330
2A
102
}
330
2A
100
AcDbVisualStyle
  2
Facepattern
 70
    15
177
     2
291
     1
 71
     2
176
     1
 72
     2
176
     1
 73
     0
176
     1
 90
        0
176
     1
 40
-0.6
176
     1
 41
-30.0
176
     1
 62
     5
 63
     7
421
 16777215
176
     1
 74
     1
176
     1
 91
        4
176
     1
 64
     7
176
     1
 65
   257
176
     1
 75
     1
176
     1
175
     1
176
     1
 42
1.0
176
     1
 92
        8
176
     1
 66
     7
176
     1
 43
1.0
176
     1
 76
     1
176
     1
 77
     6
176
     1
 78
     2
176
     1
 67
     7
176
     1
 79
     5
176
     1
170
     0
176
     1
171
     0
176
     1
290
     0
176
     1
 93
        1
176
     1
 44
0.0
176
     1
173
     0
176
     1
  0
VISUALSTYLE
  5
2B
102
{ACAD_REACTORS
330
2A
102
}
330
2A
100
AcDbVisualStyle
  2
Flat
 70
     0
177
     2
291
     1
 71
     2
176
     1
 72
     1
176
     1
 73
     1
176
     1
 90
        2
176
     1
 40
-0.6
176
     1
 41
30.0
176
     1
 62
     5
 63
     7
421
 16777215
176
     1
 74
     0
176
     1
 91
        4
176
     1
 64
     7
176
     1
 65
   257
176
     1
 75
     1
176
     1
175
     1
176
     1
 42
1.0
176
     1
 92
        8
176
     1
 66
     7
176
     1
 43
1.0
176
     1
 76
     1
176
     1
 77
     6
176
     1
 78
     2
176
     1
 67
     7
176
     1
 79
     5
176
     1
170
     0
176
     1
171
     0
176
     1
290
     0
176
     1
 93
       13
176
     1
 44
0.0
176
     1
173
     0
176
     1
  0
VISUALSTYLE
  5
2C
102
{ACAD_REACTORS
330
2A
102
}
330
2A
100
AcDbVisualStyle
  2
FlatWithEdges
 70
     1
177
     2
291
     1
 71
     2
176
     1
 72
     1
176
     1
 73
     1
176
     1
 90
        2
176
     1
 40
-0.6
176
     1
 41
30.0
176
     1
 62
     5
 63
     7
421
 16777215
176
     1
 74
     1
176
     1
 91
        4
176
     1
 64
     7
176
     1
 65
   257
176
     1
 75
     1
176
     1
175
     1
176
     1
 42
1.0
176
     1
 92
        0
176
     1
 66
   257
176
     1
 43
1.0
176
     1
 76
     1
176
     1
 77
     6
176
     1
 78
     2
176
     1
 67
     7
176
     1
 79
     5
176
     1
170
     0
176
     1
171
     0
176
     1
290
     0
176
     1
 93
       13
176
     1
 44
0.0
176
     1
173
     0
176
     1
  0
VISUALSTYLE
  5
2D
102
{ACAD_REACTORS
330
2A
102
}
330
2A
100
AcDbVisualStyle
  2
Gouraud
 70
     2
177
     2
291
     1
 71
     2
176
     1
 72
     2
176
     1
 73
     1
176
     1
 90
        2
176
     1
 40
-0.6
176
     1
 41
30.0
176
     1
 62
     5
 63
     7
421
 16777215
176
     1
 74
     0
176
     1
 91
        4
176
     1
 64
     7
176
     1
 65
   257
176
     1
 75
     1
176
     1
175
     1
176
     1
 42
1.0
176
     1
 92
        0
176
     1
 66
     7
176
     1
 43
1.0
176
     1
 76
     1
176
     1
 77
     6
176
     1
 78
     2
176
     1
 67
     7
176
     1
 79
     5
176
     1
170
     0
176
     1
171
     0
176
     1
290
     0
176
     1
 93
       13
176
     1
 44
0.0
176
     1
173
     0
176
     1
  0
VISUALSTYLE
  5
2E
102
{ACAD_REACTORS
330
2A
102
}
330
2A
100
AcDbVisualStyle
  2
GouraudWithEdges
 70
     3
177
     2
291
     1
 71
     2
176
     1
 72
     2
176
     1
 73
     1
176
     1
 90
        2
176
     1
 40
-0.6
176
     1
 41
30.0
176
     1
 62
     5
 63
     7
421
 16777215
176
     1
 74
     1
176
     1
 91
        4
176
     1
 64
     7
176
     1
 65
   257
176
     1
 75
     1
176
     1
175
     1
176
     1
 42
1.0
176
     1
 92
        0
176
     1
 66
   257
176
     1
 43
1.0
176
     1
 76
     1
176
     1
 77
     6
176
     1
 78
     2
176
     1
 67
     7
176
     1
 79
     5
176
     1
170
     0
176
     1
171
     0
176
     1
290
     0
176
     1
 93
       13
176
     1
 44
0.0
176
     1
173
     0
176
     1
  0
VISUALSTYLE
  5
38
102
{ACAD_REACTORS
330
2A
102
}
330
2A
100
AcDbVisualStyle
  2
Linepattern
 70
    14
177
     2
291
     1
 71
     2
176
     1
 72
     2
176
     1
 73
     0
176
     1
 90
        0
176
     1
 40
-0.6
176
     1
 41
-30.0
176
     1
 62
     5
 63
     7
421
 16777215
176
     1
 74
     1
176
     1
 91
        4
176
     1
 64
     7
176
     1
 65
   257
176
     1
 75
     7
176
     1
175
     7
176
     1
 42
1.0
176
     1
 92
        8
176
     1
 66
     7
176
     1
 43
1.0
176
     1
 76
     1
176
     1
 77
     6
176
     1
 78
     2
176
     1
 67
     7
176
     1
 79
     5
176
     1
170
     0
176
     1
171
     0
176
     1
290
     0
176
     1
 93
        1
176
     1
 44
0.0
176
     1
173
     0
176
     1
  0
VISUALSTYLE
  5
33
102
{ACAD_REACTORS
330
2A
102
}
330
2A
100
AcDbVisualStyle
  2
Realistic
 70
     8
177
     2
291
     0
 71
     2
176
     1
 72
     2
176
     1
 73
     0
176
     1
 90
        0
176
     1
 40
-0.6
176
     1
 41
-30.0
176
     1
 62
     5
 63
     7
421
 16777215
176
     1
 74
     1
176
     1
 91
        0
176
     1
 64
     7
176
     1
 65
   257
176
     1
 75
     1
176
     1
175
     1
176
     1
 42
1.0
176
     1
 92
        8
176
     1
 66
     8
424
  7895160
176
     1
 43
1.0
176
     1
 76
     1
176
     1
 77
     6
176
     1
 78
     2
176
     1
 67
     7
176
     1
 79
     5
176
     1
170
     0
176
     1
171
     0
176
     1
290
     0
176
     1
 93
       13
176
     1
 44
0.0
176
     1
173
     0
176
     1
  0
VISUALSTYLE
  5
37
102
{ACAD_REACTORS
330
2A
102
}
330
2A
100
AcDbVisualStyle
  2
Thicken
 70
    13
177
     2
291
     1
 71
     2
176
     1
 72
     2
176
     1
 73
     0
176
     1
 90
        0
176
     1
 40
-0.6
176
     1
 41
-30.0
176
     1
 62
     5
 63
     7
421
 16777215
176
     1
 74
     1
176
     1
 91
        4
176
     1
 64
     7
176
     1
 65
   257
176
     1
 75
     1
176
     1
175
     1
176
     1
 42
1.0
176
     1
 92
       12
176
     1
 66
     7
176
     1
 43
1.0
176
     1
 76
     1
176
     1
 77
     6
176
     1
 78
     2
176
     1
 67
     7
176
     1
 79
     5
176
     1
170
     0
176
     1
171
     0
176
     1
290
     0
176
     1
 93
        1
176
     1
 44
0.0
176
     1
173
     0
176
     1
  0
ENDSEC
  0
EOF
