  0
SECTION
  2
HEADER
  9
$ACADVER
  1
AC1024
  9
$ACADMAINTVER
 70
     6
  9
$DWGCODEPAGE
  3
UNDEFINED
  9
$INSBASE
 10
0.0
 20
0.0
 30
0.0
  9
$EXTMIN
 10
1.000000000000000E+20
 20
1.000000000000000E+20
 30
1.000000000000000E+20
  9
$EXTMAX
 10
-1.000000000000000E+20
 20
-1.000000000000000E+20
 30
-1.000000000000000E+20
  9
$LIMMIN
 10
0.0
 20
0.0
  9
$LIMMAX
 10
12.0
 20
9.0
  9
$ORTHOMODE
 70
     0
  9
$REGENMODE
 70
     1
  9
$FILLMODE
 70
     1
  9
$QTEXTMODE
 70
     0
  9
$MIRRTEXT
 70
     1
  9
$LTSCALE
 40
1.0
  9
$ATTMODE
 70
     1
  9
$TEXTSIZE
 40
0.2
  9
$TRACEWID
 40
0.05
  9
$TEXTSTYLE
  7
Standard
  9
$CLAYER
  8
0
  9
$CELTYPE
  6
ByLayer
  9
$CECOLOR
 62
   256
  9
$CELTSCALE
 40
1.0
  9
$DISPSILH
 70
     0
  9
$DIMSCALE
 40
1.0
  9
$DIMASZ
 40
0.18
  9
$DIMEXO
 40
0.0625
  9
$DIMDLI
 40
0.38
  9
$DIMRND
 40
0.0
  9
$DIMDLE
 40
0.0
  9
$DIMEXE
 40
0.18
  9
$DIMTP
 40
0.0
  9
$DIMTM
 40
0.0
  9
$DIMTXT
 40
0.18
  9
$DIMCEN
 40
0.09
  9
$DIMTSZ
 40
0.0
  9
$DIMTOL
 70
     0
  9
$DIMLIM
 70
     0
  9
$DIMTIH
 70
     1
  9
$DIMTOH
 70
     1
  9
$DIMSE1
 70
     0
  9
$DIMSE2
 70
     0
  9
$DIMTAD
 70
     0
  9
$DIMZIN
 70
     0
  9
$DIMBLK
  1

  9
$DIMASO
 70
     1
  9
$DIMSHO
 70
     1
  9
$DIMPOST
  1

  9
$DIMAPOST
  1

  9
$DIMALT
 70
     0
  9
$DIMALTD
 70
     2
  9
$DIMALTF
 40
25.4
  9
$DIMLFAC
 40
1.0
  9
$DIMTOFL
 70
     0
  9
$DIMTVP
 40
0.0
  9
$DIMTIX
 70
     0
  9
$DIMSOXD
 70
     0
  9
$DIMSAH
 70
     0
  9
$DIMBLK1
  1

  9
$DIMBLK2
  1

  9
$DIMSTYLE
  2
Standard
  9
$DIMCLRD
 70
     0
  9
$DIMCLRE
 70
     0
  9
$DIMCLRT
 70
     0
  9
$DIMTFAC
 40
1.0
  9
$DIMGAP
 40
0.09
  9
$DIMJUST
 70
     0
  9
$DIMSD1
 70
     0
  9
$DIMSD2
 70
     0
  9
$DIMTOLJ
 70
     1
  9
$DIMTZIN
 70
     0
  9
$DIMALTZ
 70
     0
  9
$DIMALTTZ
 70
     0
  9
$DIMUPT
 70
     0
  9
$DIMDEC
 70
     4
  9
$DIMTDEC
 70
     4
  9
$DIMALTU
 70
     2
  9
$DIMALTTD
 70
     2
  9
$DIMTXSTY
  7
Standard
  9
$DIMAUNIT
 70
     0
  9
$DIMADEC
 70
     0
  9
$DIMALTRND
 40
0.0
  9
$DIMAZIN
 70
     0
  9
$DIMDSEP
 70
    46
  9
$DIMATFIT
 70
     3
  9
$DIMFRAC
 70
     0
  9
$DIMLDRBLK
  1

  9
$DIMLUNIT
 70
     2
  9
$DIMLWD
 70
    -2
  9
$DIMLWE
 70
    -2
  9
$DIMTMOVE
 70
     0
  9
$DIMFXL
 40
1.0
  9
$DIMFXLON
 70
     0
  9
$DIMJOGANG
 40
0.7853981633974483
  9
$DIMTFILL
 70
     0
  9
$DIMTFILLCLR
 70
     0
  9
$DIMARCSYM
 70
     0
  9
$DIMLTYPE
  6

  9
$DIMLTEX1
  6

  9
$DIMLTEX2
  6

  9
$DIMTXTDIRECTION
 70
     0
  9
$LUNITS
 70
     2
  9
$LUPREC
 70
     4
  9
$SKETCHINC
 40
0.1
  9
$FILLETRAD
 40
0.5
  9
$AUNITS
 70
     0
  9
$AUPREC
 70
     0
  9
$MENU
  1
.
  9
$ELEVATION
 40
0.0
  9
$PELEVATION
 40
0.0
  9
$THICKNESS
 40
0.0
  9
$LIMCHECK
 70
     0
  9
$CHAMFERA
 40
0.5
  9
$CHAMFERB
 40
0.5
  9
$CHAMFERC
 40
1.0
  9
$CHAMFERD
 40
0.0
  9
$SKPOLY
 70
     0
  9
$TDCREATE
 40
2458103.898657396
  9
$TDUCREATE
 40
2458103.856990741
  9
$TDUPDATE
 40
2458103.89866897
  9
$TDUUPDATE
 40
2458103.857002315
  9
$TDINDWG
 40
0.0000000116
  9
$TDUSRTIMER
 40
0.0000000116
  9
$USRTIMER
 70
     1
  9
$ANGBASE
 50
0.0
  9
$ANGDIR
 70
     0
  9
$PDMODE
 70
     0
  9
$PDSIZE
 40
0.0
  9
$PLINEWID
 40
0.0
  9
$SPLFRAME
 70
     0
  9
$SPLINETYPE
 70
     6
  9
$SPLINESEGS
 70
     8
  9
$HANDSEED
  5
2B6
  9
$SURFTAB1
 70
     6
  9
$SURFTAB2
 70
     6
  9
$SURFTYPE
 70
     6
  9
$SURFU
 70
     6
  9
$SURFV
 70
     6
  9
$UCSBASE
  2

  9
$UCSNAME
  2

  9
$UCSORG
 10
0.0
 20
0.0
 30
0.0
  9
$UCSXDIR
 10
1.0
 20
0.0
 30
0.0
  9
$UCSYDIR
 10
0.0
 20
1.0
 30
0.0
  9
$UCSORTHOREF
  2

  9
$UCSORTHOVIEW
 70
     0
  9
$UCSORGTOP
 10
0.0
 20
0.0
 30
0.0
  9
$UCSORGBOTTOM
 10
0.0
 20
0.0
 30
0.0
  9
$UCSORGLEFT
 10
0.0
 20
0.0
 30
0.0
  9
$UCSORGRIGHT
 10
0.0
 20
0.0
 30
0.0
  9
$UCSORGFRONT
 10
0.0
 20
0.0
 30
0.0
  9
$UCSORGBACK
 10
0.0
 20
0.0
 30
0.0
  9
$PUCSBASE
  2

  9
$PUCSNAME
  2

  9
$PUCSORG
 10
0.0
 20
0.0
 30
0.0
  9
$PUCSXDIR
 10
1.0
 20
0.0
 30
0.0
  9
$PUCSYDIR
 10
0.0
 20
1.0
 30
0.0
  9
$PUCSORTHOREF
  2

  9
$PUCSORTHOVIEW
 70
     0
  9
$PUCSORGTOP
 10
0.0
 20
0.0
 30
0.0
  9
$PUCSORGBOTTOM
 10
0.0
 20
0.0
 30
0.0
  9
$PUCSORGLEFT
 10
0.0
 20
0.0
 30
0.0
  9
$PUCSORGRIGHT
 10
0.0
 20
0.0
 30
0.0
  9
$PUCSORGFRONT
 10
0.0
 20
0.0
 30
0.0
  9
$PUCSORGBACK
 10
0.0
 20
0.0
 30
0.0
  9
$USERI1
 70
     0
  9
$USERI2
 70
     0
  9
$USERI3
 70
     0
  9
$USERI4
 70
     0
  9
$USERI5
 70
     0
  9
$USERR1
 40
0.0
  9
$USERR2
 40
0.0
  9
$USERR3
 40
0.0
  9
$USERR4
 40
0.0
  9
$USERR5
 40
0.0
  9
$WORLDVIEW
 70
     1
  9
$SHADEDGE
 70
     3
  9
$SHADEDIF
 70
    70
  9
$TILEMODE
 70
     1
  9
$MAXACTVP
 70
    64
  9
$PINSBASE
 10
0.0
 20
0.0
 30
0.0
  9
$PLIMCHECK
 70
     0
  9
$PEXTMIN
 10
1.000000000000000E+20
 20
1.000000000000000E+20
 30
1.000000000000000E+20
  9
$PEXTMAX
 10
-1.000000000000000E+20
 20
-1.000000000000000E+20
 30
-1.000000000000000E+20
  9
$PLIMMIN
 10
0.0
 20
0.0
  9
$PLIMMAX
 10
12.0
 20
9.0
  9
$UNITMODE
 70
     0
  9
$VISRETAIN
 70
     1
  9
$PLINEGEN
 70
     0
  9
$PSLTSCALE
 70
     1
  9
$TREEDEPTH
 70
  3020
  9
$CMLSTYLE
  2
Standard
  9
$CMLJUST
 70
     0
  9
$CMLSCALE
 40
1.0
  9
$PROXYGRAPHICS
 70
     1
  9
$MEASUREMENT
 70
     0
  9
$CELWEIGHT
370
    -1
  9
$ENDCAPS
280
     0
  9
$JOINSTYLE
280
     0
  9
$LWDISPLAY
290
     1
  9
$INSUNITS
 70
     1
  9
$HYPERLINKBASE
  1

  9
$STYLESHEET
  1

  9
$XEDIT
290
     1
  9
$CEPSNTYPE
380
     0
  9
$PSTYLEMODE
290
     1
  9
$FINGERPRINTGUID
  2
{4A5FCB29-6DCD-6987-0716-AAF14F616A0F}
  9
$VERSIONGUID
  2
{FAEB1C32-E019-11D5-929B-00C0DF256EC4}
  9
$EXTNAMES
290
     1
  9
$PSVPSCALE
 40
0.0
  9
$OLESTARTUP
290
     0
  9
$SORTENTS
280
   127
  9
$INDEXCTL
280
     0
  9
$HIDETEXT
280
     1
  9
$XCLIPFRAME
280
     2
  9
$HALOGAP
280
     0
  9
$OBSCOLOR
 70
   257
  9
$OBSLTYPE
280
     0
  9
$INTERSECTIONDISPLAY
280
     0
  9
$INTERSECTIONCOLOR
 70
   257
  9
$DIMASSOC
280
     2
  9
$PROJECTNAME
  1

  9
$CAMERADISPLAY
290
     0
  9
$LENSLENGTH
 40
50.0
  9
$CAMERAHEIGHT
 40
0.0
  9
$STEPSPERSEC
 40
2.0
  9
$STEPSIZE
 40
6.0
  9
$3DDWFPREC
 40
2.0
  9
$PSOLWIDTH
 40
0.25
  9
$PSOLHEIGHT
 40
4.0
  9
$LOFTANG1
 40
1.570796326794897
  9
$LOFTANG2
 40
1.570796326794897
  9
$LOFTMAG1
 40
0.0
  9
$LOFTMAG2
 40
0.0
  9
$LOFTPARAM
 70
     7
  9
$LOFTNORMALS
280
     1
  9
$LATITUDE
 40
37.795
  9
$LONGITUDE
 40
-122.394
  9
$NORTHDIRECTION
 40
0.0
  9
$TIMEZONE
 70
 -8000
  9
$LIGHTGLYPHDISPLAY
280
     1
  9
$TILEMODELIGHTSYNCH
280
     1
  9
$CMATERIAL
347
3C
  9
$SOLIDHIST
280
     1
  9
$SHOWHIST
280
     1
  9
$DWFFRAME
280
     2
  9
$DGNFRAME
280
     2
  9
$REALWORLDSCALE
290
     1
  9
$INTERFERECOLOR
 62
   256
  9
$CSHADOW
280
     0
  9
$SHADOWPLANELOCATION
 40
0.0
  0
ENDSEC
  0
SECTION
  2
CLASSES
  0
CLASS
  1
ACDBDICTIONARYWDFLT
  2
AcDbDictionaryWithDefault
  3
ObjectDBX Classes
 90
        0
 91
        4
280
     0
281
     0
  0
CLASS
  1
VISUALSTYLE
  2
AcDbVisualStyle
  3
ObjectDBX Classes
 90
     4095
 91
        4
280
     0
281
     0
  0
CLASS
  1
MATERIAL
  2
AcDbMaterial
  3
ObjectDBX Classes
 90
     1153
 91
        4
280
     0
281
     0
  0
CLASS
  1
SUN
  2
AcDbSun
  3
SCENEOE
 90
     1024
 91
        4
280
     0
281
     0
  0
ENDSEC
  0
SECTION
  2
TABLES
  0
TABLE
  2
VPORT
  5
8
330
0
100
AcDbSymbolTable
 70
     1
  0
VPORT
  5
29
330
8
100
AcDbSymbolTableRecord
100
AcDbViewportTableRecord
  2
*Active
 70
     0
 10
0.0
 20
0.0
 11
1.0
 21
1.0
 12
0.0
 22
0.0
 13
0.0
 23
0.0
 14
0.5
 24
0.5
 15
0.5
 25
0.5
 16
0.0
 26
0.0
 36
1.0
 17
85.92721478333193
 27
12.63330874646664
 37
0.0
 40
177.7332991229835
 41
0.9669230831513923
 42
50.0
 43
0.0
 44
0.0
 50
0.0
 51
0.0
 71
     0
 72
   100
 73
     1
 74
     3
 75
     0
 76
     0
 77
     0
 78
     0
281
     0
 65
     1
110
0.0
120
0.0
130
0.0
111
1.0
121
0.0
131
0.0
112
0.0
122
1.0
132
0.0
 79
     0
146
0.0
 60
     3
 61
     5
292
     1
282
     1
141
0.0
142
0.0
 63
   250
361
3F
  0
ENDTAB
  0
TABLE
  2
LTYPE
  5
5
330
0
100
AcDbSymbolTable
 70
     1
  0
LTYPE
  5
14
330
5
100
AcDbSymbolTableRecord
100
AcDbLinetypeTableRecord
  2
ByBlock
 70
     0
  3

 72
    65
 73
     0
 40
0.0
  0
LTYPE
  5
15
330
5
100
AcDbSymbolTableRecord
100
AcDbLinetypeTableRecord
  2
ByLayer
 70
     0
  3

 72
    65
 73
     0
 40
0.0
  0
LTYPE
  5
16
330
5
100
AcDbSymbolTableRecord
100
AcDbLinetypeTableRecord
  2
Continuous
 70
     0
  3
Solid line
 72
    65
 73
     0
 40
0.0
  0
ENDTAB
  0
TABLE
  2
LAYER
  5
2
330
0
100
AcDbSymbolTable
 70
     3
  0
LAYER
  5
10
330
2
100
AcDbSymbolTableRecord
100
AcDbLayerTableRecord
  2
0
 70
     0
 62
     7
  6
Continuous
370
    -3
390
F
347
3E
  0
LAYER
  5
40
330
2
100
AcDbSymbolTableRecord
100
AcDbLayerTableRecord
  2
Cut
 70
     0
 62
     7
  6
Continuous
370
    -3
390
F
347
3E
  0
LAYER
  5
2A2
330
2
100
AcDbSymbolTableRecord
100
AcDbLayerTableRecord
  2
Ritzen
 70
     0
 62
     7
  6
Continuous
370
    -3
390
F
347
3E
  0
ENDTAB
  0
TABLE
  2
STYLE
  5
3
330
0
100
AcDbSymbolTable
 70
     1
  0
STYLE
  5
11
330
3
100
AcDbSymbolTableRecord
100
AcDbTextStyleTableRecord
  2
Standard
 70
     0
 40
0.0
 41
1.0
 50
0.0
 71
     0
 42
0.2
  3
txt
  4

  0
ENDTAB
  0
TABLE
  2
VIEW
  5
6
330
0
100
AcDbSymbolTable
 70
     0
  0
ENDTAB
  0
TABLE
  2
UCS
  5
7
330
0
100
AcDbSymbolTable
 70
     0
  0
ENDTAB
  0
TABLE
  2
APPID
  5
9
330
0
100
AcDbSymbolTable
 70
     1
  0
APPID
  5
12
330
9
100
AcDbSymbolTableRecord
100
AcDbRegAppTableRecord
  2
ACAD
 70
     0
  0
ENDTAB
  0
TABLE
  2
DIMSTYLE
  5
A
330
0
100
AcDbSymbolTable
 70
     1
100
AcDbDimStyleTable
  0
DIMSTYLE
105
27
330
A
100
AcDbSymbolTableRecord
100
AcDbDimStyleTableRecord
  2
Standard
 70
     0
178
     0
340
11
  0
ENDTAB
  0
TABLE
  2
BLOCK_RECORD
  5
1
330
0
100
AcDbSymbolTable
 70
     9
  0
BLOCK_RECORD
  5
1F
330
1
100
AcDbSymbolTableRecord
100
AcDbBlockTableRecord
  2
*Model_Space
340
22
 70
     0
280
     1
281
     0
  0
BLOCK_RECORD
  5
1B
330
1
100
AcDbSymbolTableRecord
100
AcDbBlockTableRecord
  2
*Paper_Space
340
1E
 70
     0
280
     1
281
     0
  0
BLOCK_RECORD
  5
23
330
1
100
AcDbSymbolTableRecord
100
AcDbBlockTableRecord
  2
*Paper_Space0
340
26
 70
     0
280
     1
281
     0
  0
BLOCK_RECORD
  5
5E
330
1
100
AcDbSymbolTableRecord
100
AcDbBlockTableRecord
  2
block 2
340
0
102
{BLKREFS
331
5F
102
}
 70
     0
280
     1
281
     0
  0
BLOCK_RECORD
  5
70
330
1
100
AcDbSymbolTableRecord
100
AcDbBlockTableRecord
  2
block 3
340
0
102
{BLKREFS
331
71
102
}
 70
     0
280
     1
281
     0
  0
BLOCK_RECORD
  5
EF
330
1
100
AcDbSymbolTableRecord
100
AcDbBlockTableRecord
  2
block 4
340
0
102
{BLKREFS
331
F0
102
}
 70
     0
280
     1
281
     0
  0
BLOCK_RECORD
  5
101
330
1
100
AcDbSymbolTableRecord
100
AcDbBlockTableRecord
  2
block 5
340
0
102
{BLKREFS
331
102
102
}
 70
     0
280
     1
281
     0
  0
BLOCK_RECORD
  5
180
330
1
100
AcDbSymbolTableRecord
100
AcDbBlockTableRecord
  2
block 6
340
0
102
{BLKREFS
331
181
102
}
 70
     0
280
     1
281
     0
  0
BLOCK_RECORD
  5
192
330
1
100
AcDbSymbolTableRecord
100
AcDbBlockTableRecord
  2
block 7
340
0
102
{BLKREFS
331
193
102
}
 70
     0
280
     1
281
     0
  0
BLOCK_RECORD
  5
211
330
1
100
AcDbSymbolTableRecord
100
AcDbBlockTableRecord
  2
block 8
340
0
102
{BLKREFS
331
212
102
}
 70
     0
280
     1
281
     0
  0
BLOCK_RECORD
  5
223
330
1
100
AcDbSymbolTableRecord
100
AcDbBlockTableRecord
  2
block 9
340
0
102
{BLKREFS
331
224
102
}
 70
     0
280
     1
281
     0
  0
ENDTAB
  0
ENDSEC
  0
SECTION
  2
BLOCKS
  0
BLOCK
  5
20
330
1F
100
AcDbEntity
  8
0
100
AcDbBlockBegin
  2
*Model_Space
 70
     0
 10
0.0
 20
0.0
 30
0.0
  3
*Model_Space
  1

  0
ENDBLK
  5
21
330
1F
100
AcDbEntity
  8
0
100
AcDbBlockEnd
  0
BLOCK
  5
1C
330
1B
100
AcDbEntity
 67
     1
  8
0
100
AcDbBlockBegin
  2
*Paper_Space
 70
     0
 10
0.0
 20
0.0
 30
0.0
  3
*Paper_Space
  1

  0
ENDBLK
  5
1D
330
1B
100
AcDbEntity
 67
     1
  8
0
100
AcDbBlockEnd
  0
BLOCK
  5
24
330
23
100
AcDbEntity
  8
0
100
AcDbBlockBegin
  2
*Paper_Space0
 70
     0
 10
0.0
 20
0.0
 30
0.0
  3
*Paper_Space0
  1

  0
ENDBLK
  5
25
330
23
100
AcDbEntity
  8
0
100
AcDbBlockEnd
  0
BLOCK
  5
60
330
5E
100
AcDbEntity
  8
0
100
AcDbBlockBegin
  2
block 2
 70
     0
 10
0.0
 20
0.0
 30
0.0
  3
block 2
  1

  0
POLYLINE
  5
62
330
5E
100
AcDbEntity
  8
Cut
 62
   179
420
  1842203
370
     9
100
AcDb2dPolyline
 66
     1
 10
0.0
 20
0.0
 30
0.0
  0
VERTEX
  5
63
330
62
100
AcDbEntity
  8
Cut
 62
   179
420
  1842203
370
     9
100
AcDbVertex
100
AcDb2dVertex
 10
43.60297931501384
 20
-31.04598985192083
 30
0.0
  0
VERTEX
  5
64
330
62
100
AcDbEntity
  8
Cut
 62
   179
420
  1842203
370
     9
100
AcDbVertex
100
AcDb2dVertex
 10
43.2803461228202
 20
-26.9073966454902
 30
0.0
  0
VERTEX
  5
65
330
62
100
AcDbEntity
  8
Cut
 62
   179
420
  1842203
370
     9
100
AcDbVertex
100
AcDb2dVertex
 10
40.19181802029372
 20
-29.68069851111632
 30
0.0
  0
VERTEX
  5
66
330
62
100
AcDbEntity
  8
Cut
 62
   179
420
  1842203
370
     9
100
AcDbVertex
100
AcDb2dVertex
 10
36.15588865932353
 20
-28.70866481995308
 30
0.0
  0
VERTEX
  5
67
330
62
100
AcDbEntity
  8
Cut
 62
   179
420
  1842203
370
     9
100
AcDbVertex
100
AcDb2dVertex
 10
37.8391623134166
 20
-32.50326524218151
 30
0.0
  0
VERTEX
  5
68
330
62
100
AcDbEntity
  8
Cut
 62
   179
420
  1842203
370
     9
100
AcDbVertex
100
AcDb2dVertex
 10
35.66754637428937
 20
-36.04103379598457
 30
0.0
  0
VERTEX
  5
69
330
62
100
AcDbEntity
  8
Cut
 62
   179
420
  1842203
370
     9
100
AcDbVertex
100
AcDb2dVertex
 10
39.7964933133613
 20
-35.61280842716801
 30
0.0
  0
VERTEX
  5
6A
330
62
100
AcDbEntity
  8
Cut
 62
   179
420
  1842203
370
     9
100
AcDbVertex
100
AcDb2dVertex
 10
42.49021347327815
 20
-38.77144422281933
 30
0.0
  0
VERTEX
  5
6B
330
62
100
AcDbEntity
  8
Cut
 62
   179
420
  1842203
370
     9
100
AcDbVertex
100
AcDb2dVertex
 10
43.35889429988389
 20
-34.71208821254945
 30
0.0
  0
VERTEX
  5
6C
330
62
100
AcDbEntity
  8
Cut
 62
   179
420
  1842203
370
     9
100
AcDbVertex
100
AcDb2dVertex
 10
46.6986990543661
 20
-33.3316815153034
 30
0.0
  0
VERTEX
  5
6D
330
62
100
AcDbEntity
  8
Cut
 62
   179
420
  1842203
370
     9
100
AcDbVertex
100
AcDb2dVertex
 10
46.45495854878467
 20
-32.69776241417065
 30
0.0
  0
VERTEX
  5
6E
330
62
100
AcDbEntity
  8
Cut
 62
   179
420
  1842203
370
     9
100
AcDbVertex
100
AcDb2dVertex
 10
43.60297931501384
 20
-31.04598985192083
 30
0.0
  0
SEQEND
  5
6F
330
62
100
AcDbEntity
  8
Cut
 62
   179
420
  1842203
370
     9
  0
INSERT
  5
71
330
5E
100
AcDbEntity
  8
Cut
100
AcDbBlockReference
  2
block 3
 10
0.0
 20
0.0
 30
0.0
  0
ENDBLK
  5
61
330
5E
100
AcDbEntity
  8
0
100
AcDbBlockEnd
  0
BLOCK
  5
72
330
70
100
AcDbEntity
  8
0
100
AcDbBlockBegin
  2
block 3
 70
     0
 10
0.0
 20
0.0
 30
0.0
  3
block 3
  1

  0
POLYLINE
  5
74
330
70
100
AcDbEntity
  8
Cut
 62
   179
420
  1842203
370
     9
100
AcDb2dPolyline
 66
     1
 10
0.0
 20
0.0
 30
0.0
  0
VERTEX
  5
75
330
74
100
AcDbEntity
  8
Cut
 62
   179
420
  1842203
370
     9
100
AcDbVertex
100
AcDb2dVertex
 10
19.29007920173475
 20
25.14334525772976
 30
0.0
  0
VERTEX
  5
76
330
74
100
AcDbEntity
  8
Cut
 62
   179
420
  1842203
370
     9
100
AcDbVertex
100
AcDb2dVertex
 10
15.46464517491333
 20
18.47743000331984
 30
0.0
  0
VERTEX
  5
77
330
74
100
AcDbEntity
  8
Cut
 62
   179
420
  1842203
370
     9
100
AcDbVertex
100
AcDb2dVertex
 10
12.50065727417863
 20
25.56847004060958
 30
0.0
  0
VERTEX
  5
78
330
74
100
AcDbEntity
  8
Cut
 62
   179
420
  1842203
370
     9
100
AcDbVertex
100
AcDb2dVertex
 10
8.984657417472997
 20
26.30625877062262
 30
0.0
  0
VERTEX
  5
79
330
74
100
AcDbEntity
  8
Cut
 62
   179
420
  1842203
370
     9
100
AcDbVertex
100
AcDb2dVertex
 10
8.984657417472997
 20
15.30458318879188
 30
0.0
  0
VERTEX
  5
7A
330
74
100
AcDbEntity
  8
Cut
 62
   179
420
  1842203
370
     9
100
AcDbVertex
100
AcDb2dVertex
 10
11.3219178539004
 20
19.9770800680491
 30
0.0
  0
VERTEX
  5
7B
330
74
100
AcDbEntity
  8
Cut
 62
   179
420
  1842203
370
     9
100
AcDbVertex
100
AcDb2dVertex
 10
13.64529024915289
 20
15.29295599152916
 30
0.0
  0
VERTEX
  5
7C
330
74
100
AcDbEntity
  8
Cut
 62
   179
420
  1842203
370
     9
100
AcDbVertex
100
AcDb2dVertex
 10
18.98553276083866
 20
14.64011039707431
 30
0.0
  0
VERTEX
  5
7D
330
74
100
AcDbEntity
  8
Cut
 62
   179
420
  1842203
370
     9
100
AcDbVertex
100
AcDb2dVertex
 10
15.09291937205487
 20
10.8238058732888
 30
0.0
  0
VERTEX
  5
7E
330
74
100
AcDbEntity
  8
Cut
 62
   179
420
  1842203
370
     9
100
AcDbVertex
100
AcDb2dVertex
 10
15.94695854284831
 20
5.686307230909985
 30
0.0
  0
VERTEX
  5
7F
330
74
100
AcDbEntity
  8
Cut
 62
   179
420
  1842203
370
     9
100
AcDbVertex
100
AcDb2dVertex
 10
11.29073973975889
 20
8.019153638746912
 30
0.0
  0
VERTEX
  5
80
330
74
100
AcDbEntity
  8
Cut
 62
   179
420
  1842203
370
     9
100
AcDbVertex
100
AcDb2dVertex
 10
8.984657417472997
 20
6.772459710022128
 30
0.0
  0
VERTEX
  5
81
330
74
100
AcDbEntity
  8
Cut
 62
   179
420
  1842203
370
     9
100
AcDbVertex
100
AcDb2dVertex
 10
8.984657417472997
 20
2.936022909494691
 30
0.0
  0
VERTEX
  5
82
330
74
100
AcDbEntity
  8
Cut
 62
   179
420
  1842203
370
     9
100
AcDbVertex
100
AcDb2dVertex
 10
18.50373615722647
 20
1.4028477593246
 30
0.0
  0
VERTEX
  5
83
330
74
100
AcDbEntity
  8
Cut
 62
   179
420
  1842203
370
     9
100
AcDbVertex
100
AcDb2dVertex
 10
28.33276583141852
 20
11.69386473808865
 30
0.0
  0
VERTEX
  5
84
330
74
100
AcDbEntity
  8
Cut
 62
   179
420
  1842203
370
     9
100
AcDbVertex
100
AcDb2dVertex
 10
30.52229626706906
 20
-2.367464739732823
 30
0.0
  0
VERTEX
  5
85
330
74
100
AcDbEntity
  8
Cut
 62
   179
420
  1842203
370
     9
100
AcDbVertex
100
AcDb2dVertex
 10
35.7617266721177
 20
-4.887358300572033
 30
0.0
  0
VERTEX
  5
86
330
74
100
AcDbEntity
  8
Cut
 62
   179
420
  1842203
370
     9
100
AcDbVertex
100
AcDb2dVertex
 10
24.06435712073432
 20
25.53457891377344
 30
0.0
  0
VERTEX
  5
87
330
74
100
AcDbEntity
  8
Cut
 62
   179
420
  1842203
370
     9
100
AcDbVertex
100
AcDb2dVertex
 10
19.29007920173475
 20
25.14334525772976
 30
0.0
  0
SEQEND
  5
88
330
74
100
AcDbEntity
  8
Cut
 62
   179
420
  1842203
370
     9
  0
POLYLINE
  5
89
330
70
100
AcDbEntity
  8
Cut
 62
   179
420
  1842203
370
     9
100
AcDb2dPolyline
 66
     1
 10
0.0
 20
0.0
 30
0.0
  0
VERTEX
  5
8A
330
89
100
AcDbEntity
  8
Cut
 62
   179
420
  1842203
370
     9
100
AcDbVertex
100
AcDb2dVertex
 10
13.95862168353636
 20
30.91026284526372
 30
0.0
  0
VERTEX
  5
8B
330
89
100
AcDbEntity
  8
Cut
 62
   179
420
  1842203
370
     9
100
AcDbVertex
100
AcDb2dVertex
 10
11.54412651269902
 20
28.83459281540069
 30
0.0
  0
VERTEX
  5
8C
330
89
100
AcDbEntity
  8
Cut
 62
   179
420
  1842203
370
     9
100
AcDbVertex
100
AcDb2dVertex
 10
14.66038763388176
 20
28.18054143752601
 30
0.0
  0
VERTEX
  5
8D
330
89
100
AcDbEntity
  8
Cut
 62
   179
420
  1842203
370
     9
100
AcDbVertex
100
AcDb2dVertex
 10
15.88839191959906
 20
25.24290851725348
 30
0.0
  0
VERTEX
  5
8E
330
89
100
AcDbEntity
  8
Cut
 62
   179
420
  1842203
370
     9
100
AcDbVertex
100
AcDb2dVertex
 10
17.47313584281398
 20
28.00449705822975
 30
0.0
  0
VERTEX
  5
8F
330
89
100
AcDbEntity
  8
Cut
 62
   179
420
  1842203
370
     9
100
AcDbVertex
100
AcDb2dVertex
 10
20.64658554905187
 20
28.26460176736611
 30
0.0
  0
VERTEX
  5
90
330
89
100
AcDbEntity
  8
Cut
 62
   179
420
  1842203
370
     9
100
AcDbVertex
100
AcDb2dVertex
 10
18.50993732909992
 20
30.62535344863356
 30
0.0
  0
VERTEX
  5
91
330
89
100
AcDbEntity
  8
Cut
 62
   179
420
  1842203
370
     9
100
AcDbVertex
100
AcDb2dVertex
 10
19.24322590313535
 20
33.723700073293
 30
0.0
  0
VERTEX
  5
92
330
89
100
AcDbEntity
  8
Cut
 62
   179
420
  1842203
370
     9
100
AcDbVertex
100
AcDb2dVertex
 10
16.3378046256499
 20
32.42110947032003
 30
0.0
  0
VERTEX
  5
93
330
89
100
AcDbEntity
  8
Cut
 62
   179
420
  1842203
370
     9
100
AcDbVertex
100
AcDb2dVertex
 10
13.61755723049663
 20
34.07613334143406
 30
0.0
  0
VERTEX
  5
94
330
89
100
AcDbEntity
  8
Cut
 62
   179
420
  1842203
370
     9
100
AcDbVertex
100
AcDb2dVertex
 10
13.95862168353636
 20
30.91026284526372
 30
0.0
  0
SEQEND
  5
95
330
89
100
AcDbEntity
  8
Cut
 62
   179
420
  1842203
370
     9
  0
POLYLINE
  5
96
330
70
100
AcDbEntity
  8
Cut
 62
   179
420
  1842203
370
     9
100
AcDb2dPolyline
 66
     1
 10
0.0
 20
0.0
 30
0.0
  0
VERTEX
  5
97
330
96
100
AcDbEntity
  8
Cut
 62
   179
420
  1842203
370
     9
100
AcDbVertex
100
AcDb2dVertex
 10
27.88817625904703
 20
-12.99885715243956
 30
0.0
  0
VERTEX
  5
98
330
96
100
AcDbEntity
  8
Cut
 62
   179
420
  1842203
370
     9
100
AcDbVertex
100
AcDb2dVertex
 10
36.56861109845646
 20
-8.604293351454865
 30
0.0
  0
VERTEX
  5
99
330
96
100
AcDbEntity
  8
Cut
 62
   179
420
  1842203
370
     9
100
AcDbVertex
100
AcDb2dVertex
 10
27.80067083372169
 20
-4.387324222734802
 30
0.0
  0
VERTEX
  5
9A
330
96
100
AcDbEntity
  8
Cut
 62
   179
420
  1842203
370
     9
100
AcDbVertex
100
AcDb2dVertex
 10
26.30377684538063
 20
5.226042474080606
 30
0.0
  0
VERTEX
  5
9B
330
96
100
AcDbEntity
  8
Cut
 62
   179
420
  1842203
370
     9
100
AcDbVertex
100
AcDb2dVertex
 10
19.5837735918523
 20
-1.809703780670874
 30
0.0
  0
VERTEX
  5
9C
330
96
100
AcDbEntity
  8
Cut
 62
   179
420
  1842203
370
     9
100
AcDbVertex
100
AcDb2dVertex
 10
9.978158359878702
 20
-0.2626836530194342
 30
0.0
  0
VERTEX
  5
9D
330
96
100
AcDbEntity
  8
Cut
 62
   179
420
  1842203
370
     9
100
AcDbVertex
100
AcDb2dVertex
 10
14.59303601714512
 20
-8.82788004844758
 30
0.0
  0
VERTEX
  5
9E
330
96
100
AcDbEntity
  8
Cut
 62
   179
420
  1842203
370
     9
100
AcDbVertex
100
AcDb2dVertex
 10
10.15334146530366
 20
-17.48523274810616
 30
0.0
  0
VERTEX
  5
9F
330
96
100
AcDbEntity
  8
Cut
 62
   179
420
  1842203
370
     9
100
AcDbVertex
100
AcDb2dVertex
 10
19.72553927107033
 20
-15.74304796121532
 30
0.0
  0
VERTEX
  5
A0
330
96
100
AcDbEntity
  8
Cut
 62
   179
420
  1842203
370
     9
100
AcDbVertex
100
AcDb2dVertex
 10
26.58730820381669
 20
-22.64064588700828
 30
0.0
  0
VERTEX
  5
A1
330
96
100
AcDbEntity
  8
Cut
 62
   179
420
  1842203
370
     9
100
AcDbVertex
100
AcDb2dVertex
 10
27.88817625904703
 20
-12.99885715243956
 30
0.0
  0
SEQEND
  5
A2
330
96
100
AcDbEntity
  8
Cut
 62
   179
420
  1842203
370
     9
  0
POLYLINE
  5
A3
330
70
100
AcDbEntity
  8
Cut
 62
   179
420
  1842203
370
     9
100
AcDb2dPolyline
 66
     1
 10
0.0
 20
0.0
 30
0.0
  0
VERTEX
  5
A4
330
A3
100
AcDbEntity
  8
Cut
 62
   179
420
  1842203
370
     9
100
AcDbVertex
100
AcDb2dVertex
 10
8.984657417472997
 20
-13.18967237862883
 30
0.0
  0
VERTEX
  5
A5
330
A3
100
AcDbEntity
  8
Cut
 62
   179
420
  1842203
370
     9
100
AcDbVertex
100
AcDb2dVertex
 10
11.20375107875633
 20
-8.862331003300078
 30
0.0
  0
VERTEX
  5
A6
330
A3
100
AcDbEntity
  8
Cut
 62
   179
420
  1842203
370
     9
100
AcDbVertex
100
AcDb2dVertex
 10
8.984657417472997
 20
-4.743547095909635
 30
0.0
  0
VERTEX
  5
A7
330
A3
100
AcDbEntity
  8
Cut
 62
   179
420
  1842203
370
     9
100
AcDbVertex
100
AcDb2dVertex
 10
8.984657417472997
 20
-13.18967237862883
 30
0.0
  0
SEQEND
  5
A8
330
A3
100
AcDbEntity
  8
Cut
 62
   179
420
  1842203
370
     9
  0
POLYLINE
  5
A9
330
70
100
AcDbEntity
  8
Cut
 62
   179
420
  1842203
370
     9
100
AcDb2dPolyline
 66
     1
 10
0.0
 20
0.0
 30
0.0
  0
VERTEX
  5
AA
330
A9
100
AcDbEntity
  8
Cut
 62
   179
420
  1842203
370
     9
100
AcDbVertex
100
AcDb2dVertex
 10
47.77570049859555
 20
-36.13267333589221
 30
0.0
  0
VERTEX
  5
AB
330
A9
100
AcDbEntity
  8
Cut
 62
   179
420
  1842203
370
     9
100
AcDbVertex
100
AcDb2dVertex
 10
45.96235295808719
 20
-36.88215385870832
 30
0.0
  0
VERTEX
  5
AC
330
A9
100
AcDbEntity
  8
Cut
 62
   179
420
  1842203
370
     9
100
AcDbVertex
100
AcDb2dVertex
 10
44.15178302581414
 20
-45.34330837048192
 30
0.0
  0
VERTEX
  5
AD
330
A9
100
AcDbEntity
  8
Cut
 62
   179
420
  1842203
370
     9
100
AcDbVertex
100
AcDb2dVertex
 10
38.53731091350248
 20
-38.75955864339522
 30
0.0
  0
VERTEX
  5
AE
330
A9
100
AcDbEntity
  8
Cut
 62
   179
420
  1842203
370
     9
100
AcDbVertex
100
AcDb2dVertex
 10
29.93077337225166
 20
-39.65218288362345
 30
0.0
  0
VERTEX
  5
AF
330
A9
100
AcDbEntity
  8
Cut
 62
   179
420
  1842203
370
     9
100
AcDbVertex
100
AcDb2dVertex
 10
34.45745658509568
 20
-32.27795599744617
 30
0.0
  0
VERTEX
  5
B0
330
A9
100
AcDbEntity
  8
Cut
 62
   179
420
  1842203
370
     9
100
AcDbVertex
100
AcDb2dVertex
 10
30.94897134291725
 20
-24.36853352763534
 30
0.0
  0
VERTEX
  5
B1
330
A9
100
AcDbEntity
  8
Cut
 62
   179
420
  1842203
370
     9
100
AcDbVertex
100
AcDb2dVertex
 10
39.36086098925146
 20
-26.39476643728502
 30
0.0
  0
VERTEX
  5
B2
330
A9
100
AcDbEntity
  8
Cut
 62
   179
420
  1842203
370
     9
100
AcDbVertex
100
AcDb2dVertex
 10
42.83276362374622
 20
-23.27734259637601
 30
0.0
  0
VERTEX
  5
B3
330
A9
100
AcDbEntity
  8
Cut
 62
   179
420
  1842203
370
     9
100
AcDbVertex
100
AcDb2dVertex
 10
38.17176475067102
 20
-11.15525736720167
 30
0.0
  0
VERTEX
  5
B4
330
A9
100
AcDbEntity
  8
Cut
 62
   179
420
  1842203
370
     9
100
AcDbVertex
100
AcDb2dVertex
 10
30.65045381912035
 20
-14.96290608858049
 30
0.0
  0
VERTEX
  5
B5
330
A9
100
AcDbEntity
  8
Cut
 62
   179
420
  1842203
370
     9
100
AcDbVertex
100
AcDb2dVertex
 10
28.74738307306834
 20
-29.06609347654775
 30
0.0
  0
VERTEX
  5
B6
330
A9
100
AcDbEntity
  8
Cut
 62
   179
420
  1842203
370
     9
100
AcDbVertex
100
AcDb2dVertex
 10
18.71095865066425
 20
-18.97695909321934
 30
0.0
  0
VERTEX
  5
B7
330
A9
100
AcDbEntity
  8
Cut
 62
   179
420
  1842203
370
     9
100
AcDbVertex
100
AcDb2dVertex
 10
8.984657417472997
 20
-20.74726447200853
 30
0.0
  0
VERTEX
  5
B8
330
A9
100
AcDbEntity
  8
Cut
 62
   179
420
  1842203
370
     9
100
AcDbVertex
100
AcDb2dVertex
 10
8.984657417472997
 20
-32.83560929727421
 30
0.0
  0
VERTEX
  5
B9
330
A9
100
AcDbEntity
  8
Cut
 62
   179
420
  1842203
370
     9
100
AcDbVertex
100
AcDb2dVertex
 10
12.87292137320666
 20
-34.89579792930039
 30
0.0
  0
VERTEX
  5
BA
330
A9
100
AcDbEntity
  8
Cut
 62
   179
420
  1842203
370
     9
100
AcDbVertex
100
AcDb2dVertex
 10
12.97573594159459
 20
-34.72828016133012
 30
0.0
  0
VERTEX
  5
BB
330
A9
100
AcDbEntity
  8
Cut
 62
   179
420
  1842203
370
     9
100
AcDbVertex
100
AcDb2dVertex
 10
9.994522563433637
 20
-28.00793239825326
 30
0.0
  0
VERTEX
  5
BC
330
A9
100
AcDbEntity
  8
Cut
 62
   179
420
  1842203
370
     9
100
AcDbVertex
100
AcDb2dVertex
 10
17.14188991190721
 20
-29.72961886700687
 30
0.0
  0
VERTEX
  5
BD
330
A9
100
AcDbEntity
  8
Cut
 62
   179
420
  1842203
370
     9
100
AcDbVertex
100
AcDb2dVertex
 10
22.61235703293543
 20
-24.81760172413765
 30
0.0
  0
VERTEX
  5
BE
330
A9
100
AcDbEntity
  8
Cut
 62
   179
420
  1842203
370
     9
100
AcDbVertex
100
AcDb2dVertex
 10
23.18355386438985
 20
-32.1473868785552
 30
0.0
  0
VERTEX
  5
BF
330
A9
100
AcDbEntity
  8
Cut
 62
   179
420
  1842203
370
     9
100
AcDbVertex
100
AcDb2dVertex
 10
29.54543944222647
 20
-35.83208875480417
 30
0.0
  0
VERTEX
  5
C0
330
A9
100
AcDbEntity
  8
Cut
 62
   179
420
  1842203
370
     9
100
AcDbVertex
100
AcDb2dVertex
 10
22.75102212621674
 20
-38.64035833960557
 30
0.0
  0
VERTEX
  5
C1
330
A9
100
AcDbEntity
  8
Cut
 62
   179
420
  1842203
370
     9
100
AcDbVertex
100
AcDb2dVertex
 10
22.46477775508604
 20
-39.97800278914095
 30
0.0
  0
VERTEX
  5
C2
330
A9
100
AcDbEntity
  8
Cut
 62
   179
420
  1842203
370
     9
100
AcDbVertex
100
AcDb2dVertex
 10
42.87240375367337
 20
-50.79090867022679
 30
0.0
  0
VERTEX
  5
C3
330
A9
100
AcDbEntity
  8
Cut
 62
   179
420
  1842203
370
     9
100
AcDbVertex
100
AcDb2dVertex
 10
43.12790064759789
 20
-50.37469807191504
 30
0.0
  0
VERTEX
  5
C4
330
A9
100
AcDbEntity
  8
Cut
 62
   179
420
  1842203
370
     9
100
AcDbVertex
100
AcDb2dVertex
 10
41.41207084116921
 20
-46.50706162539932
 30
0.0
  0
VERTEX
  5
C5
330
A9
100
AcDbEntity
  8
Cut
 62
   179
420
  1842203
370
     9
100
AcDbVertex
100
AcDb2dVertex
 10
45.52568710533178
 20
-47.49787108695717
 30
0.0
  0
VERTEX
  5
C6
330
A9
100
AcDbEntity
  8
Cut
 62
   179
420
  1842203
370
     9
100
AcDbVertex
100
AcDb2dVertex
 10
48.67381535975308
 20
-44.67134249608394
 30
0.0
  0
VERTEX
  5
C7
330
A9
100
AcDbEntity
  8
Cut
 62
   179
420
  1842203
370
     9
100
AcDbVertex
100
AcDb2dVertex
 10
49.00247746904591
 20
-48.88934515344958
 30
0.0
  0
VERTEX
  5
C8
330
A9
100
AcDbEntity
  8
Cut
 62
   179
420
  1842203
370
     9
100
AcDbVertex
100
AcDb2dVertex
 10
52.66375269599518
 20
-51.00997367939512
 30
0.0
  0
VERTEX
  5
C9
330
A9
100
AcDbEntity
  8
Cut
 62
   179
420
  1842203
370
     9
100
AcDbVertex
100
AcDb2dVertex
 10
48.75356932023661
 20
-52.62606797152581
 30
0.0
  0
VERTEX
  5
CA
330
A9
100
AcDbEntity
  8
Cut
 62
   179
420
  1842203
370
     9
100
AcDbVertex
100
AcDb2dVertex
 10
48.50737418412227
 20
-53.77655760882499
 30
0.0
  0
VERTEX
  5
CB
330
A9
100
AcDbEntity
  8
Cut
 62
   179
420
  1842203
370
     9
100
AcDbVertex
100
AcDb2dVertex
 10
56.1083960124629
 20
-57.80393882662241
 30
0.0
  0
VERTEX
  5
CC
330
A9
100
AcDbEntity
  8
Cut
 62
   179
420
  1842203
370
     9
100
AcDbVertex
100
AcDb2dVertex
 10
47.77570049859555
 20
-36.13267333589221
 30
0.0
  0
SEQEND
  5
CD
330
A9
100
AcDbEntity
  8
Cut
 62
   179
420
  1842203
370
     9
  0
POLYLINE
  5
CE
330
70
100
AcDbEntity
  8
Cut
 62
   179
420
  1842203
370
     9
100
AcDb2dPolyline
 66
     1
 10
0.0
 20
0.0
 30
0.0
  0
VERTEX
  5
CF
330
CE
100
AcDbEntity
  8
Cut
 62
   179
420
  1842203
370
     9
100
AcDbVertex
100
AcDb2dVertex
 10
17.70137341871179
 20
-37.08868733304904
 30
0.0
  0
VERTEX
  5
D0
330
CE
100
AcDbEntity
  8
Cut
 62
   179
420
  1842203
370
     9
100
AcDbVertex
100
AcDb2dVertex
 10
18.26996489670549
 20
-37.75539943683202
 30
0.0
  0
VERTEX
  5
D1
330
CE
100
AcDbEntity
  8
Cut
 62
   179
420
  1842203
370
     9
100
AcDbVertex
100
AcDb2dVertex
 10
19.70930425859609
 20
-38.51803591803242
 30
0.0
  0
VERTEX
  5
D2
330
CE
100
AcDbEntity
  8
Cut
 62
   179
420
  1842203
370
     9
100
AcDbVertex
100
AcDb2dVertex
 10
20.14756346801343
 20
-36.4702926934467
 30
0.0
  0
VERTEX
  5
D3
330
CE
100
AcDbEntity
  8
Cut
 62
   179
420
  1842203
370
     9
100
AcDbVertex
100
AcDb2dVertex
 10
22.78168347603546
 20
-35.38147026533349
 30
0.0
  0
VERTEX
  5
D4
330
CE
100
AcDbEntity
  8
Cut
 62
   179
420
  1842203
370
     9
100
AcDbVertex
100
AcDb2dVertex
 10
20.31516736337084
 20
-33.95296142237464
 30
0.0
  0
VERTEX
  5
D5
330
CE
100
AcDbEntity
  8
Cut
 62
   179
420
  1842203
370
     9
100
AcDbVertex
100
AcDb2dVertex
 10
20.09364772366927
 20
-31.11110215659205
 30
0.0
  0
VERTEX
  5
D6
330
CE
100
AcDbEntity
  8
Cut
 62
   179
420
  1842203
370
     9
100
AcDbVertex
100
AcDb2dVertex
 10
17.97284694294947
 20
-33.01555094083816
 30
0.0
  0
VERTEX
  5
D7
330
CE
100
AcDbEntity
  8
Cut
 62
   179
420
  1842203
370
     9
100
AcDbVertex
100
AcDb2dVertex
 10
15.20178438938877
 20
-32.34806369057101
 30
0.0
  0
VERTEX
  5
D8
330
CE
100
AcDbEntity
  8
Cut
 62
   179
420
  1842203
370
     9
100
AcDbVertex
100
AcDb2dVertex
 10
16.35744166991583
 20
-34.95358940606546
 30
0.0
  0
VERTEX
  5
D9
330
CE
100
AcDbEntity
  8
Cut
 62
   179
420
  1842203
370
     9
100
AcDbVertex
100
AcDb2dVertex
 10
15.5290684604875
 20
-36.30314096687174
 30
0.0
  0
VERTEX
  5
DA
330
CE
100
AcDbEntity
  8
Cut
 62
   179
420
  1842203
370
     9
100
AcDbVertex
100
AcDb2dVertex
 10
17.12457830709383
 20
-37.1485028034117
 30
0.0
  0
VERTEX
  5
DB
330
CE
100
AcDbEntity
  8
Cut
 62
   179
420
  1842203
370
     9
100
AcDbVertex
100
AcDb2dVertex
 10
17.70137341871179
 20
-37.08868733304904
 30
0.0
  0
SEQEND
  5
DC
330
CE
100
AcDbEntity
  8
Cut
 62
   179
420
  1842203
370
     9
  0
POLYLINE
  5
DD
330
70
100
AcDbEntity
  8
Cut
 62
   179
420
  1842203
370
     9
100
AcDb2dPolyline
 66
     1
 10
0.0
 20
0.0
 30
0.0
  0
VERTEX
  5
DE
330
DD
100
AcDbEntity
  8
Cut
 62
   179
420
  1842203
370
     9
100
AcDbVertex
100
AcDb2dVertex
 10
9.469662266255826
 20
48.51332273669629
 30
0.0
  0
VERTEX
  5
DF
330
DD
100
AcDbEntity
  8
Cut
 62
   179
420
  1842203
370
     9
100
AcDbVertex
100
AcDb2dVertex
 10
12.02471733289137
 20
50.80741182032416
 30
0.0
  0
VERTEX
  5
E0
330
DD
100
AcDbEntity
  8
Cut
 62
   179
420
  1842203
370
     9
100
AcDbVertex
100
AcDb2dVertex
 10
12.29171223299823
 20
47.38384818185713
 30
0.0
  0
VERTEX
  5
E1
330
DD
100
AcDbEntity
  8
Cut
 62
   179
420
  1842203
370
     9
100
AcDbVertex
100
AcDb2dVertex
 10
15.26293483425195
 20
45.66250622265205
 30
0.0
  0
VERTEX
  5
E2
330
DD
100
AcDbEntity
  8
Cut
 62
   179
420
  1842203
370
     9
100
AcDbVertex
100
AcDb2dVertex
 10
12.08948512801406
 20
44.35130288096596
 30
0.0
  0
VERTEX
  5
E3
330
DD
100
AcDbEntity
  8
Cut
 62
   179
420
  1842203
370
     9
100
AcDbVertex
100
AcDb2dVertex
 10
11.37118271933947
 20
40.99336831149294
 30
0.0
  0
VERTEX
  5
E4
330
DD
100
AcDbEntity
  8
Cut
 62
   179
420
  1842203
370
     9
100
AcDbVertex
100
AcDb2dVertex
 10
9.142894959479879
 20
43.60630098228069
 30
0.0
  0
VERTEX
  5
E5
330
DD
100
AcDbEntity
  8
Cut
 62
   179
420
  1842203
370
     9
100
AcDbVertex
100
AcDb2dVertex
 10
8.984657417472997
 20
43.58989371503218
 30
0.0
  0
VERTEX
  5
E6
330
DD
100
AcDbEntity
  8
Cut
 62
   179
420
  1842203
370
     9
100
AcDbVertex
100
AcDb2dVertex
 10
8.984657417472997
 20
30.59042879315184
 30
0.0
  0
VERTEX
  5
E7
330
DD
100
AcDbEntity
  8
Cut
 62
   179
420
  1842203
370
     9
100
AcDbVertex
100
AcDb2dVertex
 10
10.80704833362981
 20
32.15704290137563
 30
0.0
  0
VERTEX
  5
E8
330
DD
100
AcDbEntity
  8
Cut
 62
   179
420
  1842203
370
     9
100
AcDbVertex
100
AcDb2dVertex
 10
9.9836705126551
 20
39.79843694243404
 30
0.0
  0
VERTEX
  5
E9
330
DD
100
AcDbEntity
  8
Cut
 62
   179
420
  1842203
370
     9
100
AcDbVertex
100
AcDb2dVertex
 10
16.54967799799277
 20
35.80384872728685
 30
0.0
  0
VERTEX
  5
EA
330
DD
100
AcDbEntity
  8
Cut
 62
   179
420
  1842203
370
     9
100
AcDbVertex
100
AcDb2dVertex
 10
19.59139586561341
 20
37.16763283881657
 30
0.0
  0
VERTEX
  5
EB
330
DD
100
AcDbEntity
  8
Cut
 62
   179
420
  1842203
370
     9
100
AcDbVertex
100
AcDb2dVertex
 10
8.984657417472997
 20
64.75309374907515
 30
0.0
  0
VERTEX
  5
EC
330
DD
100
AcDbEntity
  8
Cut
 62
   179
420
  1842203
370
     9
100
AcDbVertex
100
AcDb2dVertex
 10
8.984657417472997
 20
48.63013300549304
 30
0.0
  0
VERTEX
  5
ED
330
DD
100
AcDbEntity
  8
Cut
 62
   179
420
  1842203
370
     9
100
AcDbVertex
100
AcDb2dVertex
 10
9.469662266255826
 20
48.51332273669629
 30
0.0
  0
SEQEND
  5
EE
330
DD
100
AcDbEntity
  8
Cut
 62
   179
420
  1842203
370
     9
  0
ENDBLK
  5
73
330
70
100
AcDbEntity
  8
0
100
AcDbBlockEnd
  0
BLOCK
  5
F1
330
EF
100
AcDbEntity
  8
0
100
AcDbBlockBegin
  2
block 4
 70
     0
 10
0.0
 20
0.0
 30
0.0
  3
block 4
  1

  0
POLYLINE
  5
F3
330
EF
100
AcDbEntity
  8
Cut
 62
   179
420
  1842203
370
     9
100
AcDb2dPolyline
 66
     1
 10
0.0
 20
0.0
 30
0.0
  0
VERTEX
  5
F4
330
F3
100
AcDbEntity
  8
Cut
 62
   179
420
  1842203
370
     9
100
AcDbVertex
100
AcDb2dVertex
 10
57.73416691928177
 20
-25.61229801083594
 30
0.0
  0
VERTEX
  5
F5
330
F3
100
AcDbEntity
  8
Cut
 62
   179
420
  1842203
370
     9
100
AcDbVertex
100
AcDb2dVertex
 10
55.20093498214477
 20
-22.32371444679409
 30
0.0
  0
VERTEX
  5
F6
330
F3
100
AcDbEntity
  8
Cut
 62
   179
420
  1842203
370
     9
100
AcDbVertex
100
AcDb2dVertex
 10
59.35185071187482
 20
-22.31333742133875
 30
0.0
  0
VERTEX
  5
F7
330
F3
100
AcDbEntity
  8
Cut
 62
   179
420
  1842203
370
     9
100
AcDbVertex
100
AcDb2dVertex
 10
61.69682507308992
 20
-18.88774688119227
 30
0.0
  0
VERTEX
  5
F8
330
F3
100
AcDbEntity
  8
Cut
 62
   179
420
  1842203
370
     9
100
AcDbVertex
100
AcDb2dVertex
 10
62.98947231269857
 20
-22.83254924289206
 30
0.0
  0
VERTEX
  5
F9
330
F3
100
AcDbEntity
  8
Cut
 62
   179
420
  1842203
370
     9
100
AcDbVertex
100
AcDb2dVertex
 10
66.97185940938692
 20
-24.00400779507357
 30
0.0
  0
VERTEX
  5
FA
330
F3
100
AcDbEntity
  8
Cut
 62
   179
420
  1842203
370
     9
100
AcDbVertex
100
AcDb2dVertex
 10
63.61969307254496
 20
-26.45238698186632
 30
0.0
  0
VERTEX
  5
FB
330
F3
100
AcDbEntity
  8
Cut
 62
   179
420
  1842203
370
     9
100
AcDbVertex
100
AcDb2dVertex
 10
63.73612065940852
 20
-30.60203190722116
 30
0.0
  0
VERTEX
  5
FC
330
F3
100
AcDbEntity
  8
Cut
 62
   179
420
  1842203
370
     9
100
AcDbVertex
100
AcDb2dVertex
 10
60.3715624446772
 20
-28.17042223124383
 30
0.0
  0
VERTEX
  5
FD
330
F3
100
AcDbEntity
  8
Cut
 62
   179
420
  1842203
370
     9
100
AcDbVertex
100
AcDb2dVertex
 10
56.96730635271618
 20
-29.38321195258974
 30
0.0
  0
VERTEX
  5
FE
330
F3
100
AcDbEntity
  8
Cut
 62
   179
420
  1842203
370
     9
100
AcDbVertex
100
AcDb2dVertex
 10
56.72354622679198
 20
-28.74930039578425
 30
0.0
  0
VERTEX
  5
FF
330
F3
100
AcDbEntity
  8
Cut
 62
   179
420
  1842203
370
     9
100
AcDbVertex
100
AcDb2dVertex
 10
57.73416691928177
 20
-25.61229801083594
 30
0.0
  0
SEQEND
  5
100
330
F3
100
AcDbEntity
  8
Cut
 62
   179
420
  1842203
370
     9
  0
INSERT
  5
102
330
EF
100
AcDbEntity
  8
Cut
100
AcDbBlockReference
  2
block 5
 10
0.0
 20
0.0
 30
0.0
  0
ENDBLK
  5
F2
330
EF
100
AcDbEntity
  8
0
100
AcDbBlockEnd
  0
BLOCK
  5
103
330
101
100
AcDbEntity
  8
0
100
AcDbBlockBegin
  2
block 5
 70
     0
 10
0.0
 20
0.0
 30
0.0
  3
block 5
  1

  0
POLYLINE
  5
105
330
101
100
AcDbEntity
  8
Cut
 62
   179
420
  1842203
370
     9
100
AcDb2dPolyline
 66
     1
 10
0.0
 20
0.0
 30
0.0
  0
VERTEX
  5
106
330
105
100
AcDbEntity
  8
Cut
 62
   179
420
  1842203
370
     9
100
AcDbVertex
100
AcDb2dVertex
 10
38.13829515571408
 20
32.39080795607558
 30
0.0
  0
VERTEX
  5
107
330
105
100
AcDbEntity
  8
Cut
 62
   179
420
  1842203
370
     9
100
AcDbVertex
100
AcDb2dVertex
 10
45.4442282258966
 20
30.00507669573615
 30
0.0
  0
VERTEX
  5
108
330
105
100
AcDbEntity
  8
Cut
 62
   179
420
  1842203
370
     9
100
AcDbVertex
100
AcDb2dVertex
 10
42.89383464429557
 20
37.25515018950734
 30
0.0
  0
VERTEX
  5
109
330
105
100
AcDbEntity
  8
Cut
 62
   179
420
  1842203
370
     9
100
AcDbVertex
100
AcDb2dVertex
 10
45.0097594003069
 20
40.15850163729741
 30
0.0
  0
VERTEX
  5
10A
330
105
100
AcDbEntity
  8
Cut
 62
   179
420
  1842203
370
     9
100
AcDbVertex
100
AcDb2dVertex
 10
52.3805959807616
 20
31.99102750436743
 30
0.0
  0
VERTEX
  5
10B
330
105
100
AcDbEntity
  8
Cut
 62
   179
420
  1842203
370
     9
100
AcDbVertex
100
AcDb2dVertex
 10
47.5149984926356
 20
33.89391334379686
 30
0.0
  0
VERTEX
  5
10C
330
105
100
AcDbEntity
  8
Cut
 62
   179
420
  1842203
370
     9
100
AcDbVertex
100
AcDb2dVertex
 10
48.92840402668853
 20
28.85989283851816
 30
0.0
  0
VERTEX
  5
10D
330
105
100
AcDbEntity
  8
Cut
 62
   179
420
  1842203
370
     9
100
AcDbVertex
100
AcDb2dVertex
 10
45.40127998997771
 20
24.79740671749972
 30
0.0
  0
VERTEX
  5
10E
330
105
100
AcDbEntity
  8
Cut
 62
   179
420
  1842203
370
     9
100
AcDbVertex
100
AcDb2dVertex
 10
50.84792088597194
 20
24.57219090347522
 30
0.0
  0
VERTEX
  5
10F
330
105
100
AcDbEntity
  8
Cut
 62
   179
420
  1842203
370
     9
100
AcDbVertex
100
AcDb2dVertex
 10
53.65588589635065
 20
20.18600717428872
 30
0.0
  0
VERTEX
  5
110
330
105
100
AcDbEntity
  8
Cut
 62
   179
420
  1842203
370
     9
100
AcDbVertex
100
AcDb2dVertex
 10
55.54964442768151
 20
25.03742186794359
 30
0.0
  0
VERTEX
  5
111
330
105
100
AcDbEntity
  8
Cut
 62
   179
420
  1842203
370
     9
100
AcDbVertex
100
AcDb2dVertex
 10
58.09689686406853
 20
25.65691073338132
 30
0.0
  0
VERTEX
  5
112
330
105
100
AcDbEntity
  8
Cut
 62
   179
420
  1842203
370
     9
100
AcDbVertex
100
AcDb2dVertex
 10
60.66720976755288
 20
22.80879927091707
 30
0.0
  0
VERTEX
  5
113
330
105
100
AcDbEntity
  8
Cut
 62
   179
420
  1842203
370
     9
100
AcDbVertex
100
AcDb2dVertex
 10
54.62758013105654
 20
15.29305845921539
 30
0.0
  0
VERTEX
  5
114
330
105
100
AcDbEntity
  8
Cut
 62
   179
420
  1842203
370
     9
100
AcDbVertex
100
AcDb2dVertex
 10
40.43594642475383
 20
16.34775630195576
 30
0.0
  0
VERTEX
  5
115
330
105
100
AcDbEntity
  8
Cut
 62
   179
420
  1842203
370
     9
100
AcDbVertex
100
AcDb2dVertex
 10
48.23119796172381
 20
4.441913883720457
 30
0.0
  0
VERTEX
  5
116
330
105
100
AcDbEntity
  8
Cut
 62
   179
420
  1842203
370
     9
100
AcDbVertex
100
AcDb2dVertex
 10
46.02978886841863
 20
-0.9390983380850951
 30
0.0
  0
VERTEX
  5
117
330
105
100
AcDbEntity
  8
Cut
 62
   179
420
  1842203
370
     9
100
AcDbVertex
100
AcDb2dVertex
 10
34.33182854625688
 20
29.48261171569623
 30
0.0
  0
VERTEX
  5
118
330
105
100
AcDbEntity
  8
Cut
 62
   179
420
  1842203
370
     9
100
AcDbVertex
100
AcDb2dVertex
 10
38.13829515571408
 20
32.39080795607558
 30
0.0
  0
SEQEND
  5
119
330
105
100
AcDbEntity
  8
Cut
 62
   179
420
  1842203
370
     9
  0
POLYLINE
  5
11A
330
101
100
AcDbEntity
  8
Cut
 62
   179
420
  1842203
370
     9
100
AcDb2dPolyline
 66
     1
 10
0.0
 20
0.0
 30
0.0
  0
VERTEX
  5
11B
330
11A
100
AcDbEntity
  8
Cut
 62
   179
420
  1842203
370
     9
100
AcDbVertex
100
AcDb2dVertex
 10
38.23260208671962
 20
40.24401646804876
 30
0.0
  0
VERTEX
  5
11C
330
11A
100
AcDbEntity
  8
Cut
 62
   179
420
  1842203
370
     9
100
AcDbVertex
100
AcDb2dVertex
 10
41.4157309816308
 20
40.32072006150229
 30
0.0
  0
VERTEX
  5
11D
330
11A
100
AcDbEntity
  8
Cut
 62
   179
420
  1842203
370
     9
100
AcDbVertex
100
AcDb2dVertex
 10
39.54046424396655
 20
37.74734849041002
 30
0.0
  0
VERTEX
  5
11E
330
11A
100
AcDbEntity
  8
Cut
 62
   179
420
  1842203
370
     9
100
AcDbVertex
100
AcDb2dVertex
 10
40.59695049131288
 20
34.74376421338723
 30
0.0
  0
VERTEX
  5
11F
330
11A
100
AcDbEntity
  8
Cut
 62
   179
420
  1842203
370
     9
100
AcDbVertex
100
AcDb2dVertex
 10
37.57026854723176
 20
35.73218769610551
 30
0.0
  0
VERTEX
  5
120
330
11A
100
AcDbEntity
  8
Cut
 62
   179
420
  1842203
370
     9
100
AcDbVertex
100
AcDb2dVertex
 10
35.04008507784512
 20
33.79915662833246
 30
0.0
  0
VERTEX
  5
121
330
11A
100
AcDbEntity
  8
Cut
 62
   179
420
  1842203
370
     9
100
AcDbVertex
100
AcDb2dVertex
 10
35.04465749207387
 20
36.98324098799628
 30
0.0
  0
VERTEX
  5
122
330
11A
100
AcDbEntity
  8
Cut
 62
   179
420
  1842203
370
     9
100
AcDbVertex
100
AcDb2dVertex
 10
32.42446369650482
 20
38.79212141881891
 30
0.0
  0
VERTEX
  5
123
330
11A
100
AcDbEntity
  8
Cut
 62
   179
420
  1842203
370
     9
100
AcDbVertex
100
AcDb2dVertex
 10
35.45410544034267
 20
39.77165497241153
 30
0.0
  0
VERTEX
  5
124
330
11A
100
AcDbEntity
  8
Cut
 62
   179
420
  1842203
370
     9
100
AcDbVertex
100
AcDb2dVertex
 10
36.36475215682117
 20
42.82281417221766
 30
0.0
  0
VERTEX
  5
125
330
11A
100
AcDbEntity
  8
Cut
 62
   179
420
  1842203
370
     9
100
AcDbVertex
100
AcDb2dVertex
 10
38.23260208671962
 20
40.24401646804876
 30
0.0
  0
SEQEND
  5
126
330
11A
100
AcDbEntity
  8
Cut
 62
   179
420
  1842203
370
     9
  0
POLYLINE
  5
127
330
101
100
AcDbEntity
  8
Cut
 62
   179
420
  1842203
370
     9
100
AcDb2dPolyline
 66
     1
 10
0.0
 20
0.0
 30
0.0
  0
VERTEX
  5
128
330
127
100
AcDbEntity
  8
Cut
 62
   179
420
  1842203
370
     9
100
AcDbVertex
100
AcDb2dVertex
 10
57.30948448111989
 20
-1.685875825577127
 30
0.0
  0
VERTEX
  5
129
330
127
100
AcDbEntity
  8
Cut
 62
   179
420
  1842203
370
     9
100
AcDbVertex
100
AcDb2dVertex
 10
47.92102016360347
 20
-4.23908513170369
 30
0.0
  0
VERTEX
  5
12A
330
127
100
AcDbEntity
  8
Cut
 62
   179
420
  1842203
370
     9
100
AcDbVertex
100
AcDb2dVertex
 10
51.60494400749656
 20
4.765819655740287
 30
0.0
  0
VERTEX
  5
12B
330
127
100
AcDbEntity
  8
Cut
 62
   179
420
  1842203
370
     9
100
AcDbVertex
100
AcDb2dVertex
 10
46.275509273252
 20
12.90551475280596
 30
0.0
  0
VERTEX
  5
12C
330
127
100
AcDbEntity
  8
Cut
 62
   179
420
  1842203
370
     9
100
AcDbVertex
100
AcDb2dVertex
 10
55.97810301161072
 20
12.18451278536329
 30
0.0
  0
VERTEX
  5
12D
330
127
100
AcDbEntity
  8
Cut
 62
   179
420
  1842203
370
     9
100
AcDbVertex
100
AcDb2dVertex
 10
62.07270022925263
 20
19.76850909435484
 30
0.0
  0
VERTEX
  5
12E
330
127
100
AcDbEntity
  8
Cut
 62
   179
420
  1842203
370
     9
100
AcDbVertex
100
AcDb2dVertex
 10
64.38514516808154
 20
10.31799146362845
 30
0.0
  0
VERTEX
  5
12F
330
127
100
AcDbEntity
  8
Cut
 62
   179
420
  1842203
370
     9
100
AcDbVertex
100
AcDb2dVertex
 10
73.48130707855344
 20
6.865386363357183
 30
0.0
  0
VERTEX
  5
130
330
127
100
AcDbEntity
  8
Cut
 62
   179
420
  1842203
370
     9
100
AcDbVertex
100
AcDb2dVertex
 10
65.20783667361437
 20
1.745633818262819
 30
0.0
  0
VERTEX
  5
131
330
127
100
AcDbEntity
  8
Cut
 62
   179
420
  1842203
370
     9
100
AcDbVertex
100
AcDb2dVertex
 10
64.73497659726088
 20
-7.972243181396262
 30
0.0
  0
VERTEX
  5
132
330
127
100
AcDbEntity
  8
Cut
 62
   179
420
  1842203
370
     9
100
AcDbVertex
100
AcDb2dVertex
 10
57.30948448111989
 20
-1.685875825577127
 30
0.0
  0
SEQEND
  5
133
330
127
100
AcDbEntity
  8
Cut
 62
   179
420
  1842203
370
     9
  0
POLYLINE
  5
134
330
101
100
AcDbEntity
  8
Cut
 62
   179
420
  1842203
370
     9
100
AcDb2dPolyline
 66
     1
 10
0.0
 20
0.0
 30
0.0
  0
VERTEX
  5
135
330
134
100
AcDbEntity
  8
Cut
 62
   179
420
  1842203
370
     9
100
AcDbVertex
100
AcDb2dVertex
 10
71.4710063193494
 20
10.83733200107919
 30
0.0
  0
VERTEX
  5
136
330
134
100
AcDbEntity
  8
Cut
 62
   179
420
  1842203
370
     9
100
AcDbVertex
100
AcDb2dVertex
 10
66.92437923419155
 20
12.56314838896431
 30
0.0
  0
VERTEX
  5
137
330
134
100
AcDbEntity
  8
Cut
 62
   179
420
  1842203
370
     9
100
AcDbVertex
100
AcDb2dVertex
 10
65.81232199132009
 20
17.1076050387625
 30
0.0
  0
VERTEX
  5
138
330
134
100
AcDbEntity
  8
Cut
 62
   179
420
  1842203
370
     9
100
AcDbVertex
100
AcDb2dVertex
 10
71.4710063193494
 20
10.83733200107919
 30
0.0
  0
SEQEND
  5
139
330
134
100
AcDbEntity
  8
Cut
 62
   179
420
  1842203
370
     9
  0
POLYLINE
  5
13A
330
101
100
AcDbEntity
  8
Cut
 62
   179
420
  1842203
370
     9
100
AcDb2dPolyline
 66
     1
 10
0.0
 20
0.0
 30
0.0
  0
VERTEX
  5
13B
330
13A
100
AcDbEntity
  8
Cut
 62
   179
420
  1842203
370
     9
100
AcDbVertex
100
AcDb2dVertex
 10
58.04434879481812
 20
-32.18418800885792
 30
0.0
  0
VERTEX
  5
13C
330
13A
100
AcDbEntity
  8
Cut
 62
   179
420
  1842203
370
     9
100
AcDbVertex
100
AcDb2dVertex
 10
59.8926824812439
 20
-31.52569507770967
 30
0.0
  0
VERTEX
  5
13D
330
13A
100
AcDbEntity
  8
Cut
 62
   179
420
  1842203
370
     9
100
AcDbVertex
100
AcDb2dVertex
 10
66.90557517218852
 20
-36.59409080585272
 30
0.0
  0
VERTEX
  5
13E
330
13A
100
AcDbEntity
  8
Cut
 62
   179
420
  1842203
370
     9
100
AcDbVertex
100
AcDb2dVertex
 10
66.66273147463201
 20
-27.94486630261556
 30
0.0
  0
VERTEX
  5
13F
330
13A
100
AcDbEntity
  8
Cut
 62
   179
420
  1842203
370
     9
100
AcDbVertex
100
AcDb2dVertex
 10
73.65012712840768
 20
-22.84138038994822
 30
0.0
  0
VERTEX
  5
140
330
13A
100
AcDbEntity
  8
Cut
 62
   179
420
  1842203
370
     9
100
AcDbVertex
100
AcDb2dVertex
 10
65.34904711065951
 20
-20.39962822864817
 30
0.0
  0
VERTEX
  5
141
330
13A
100
AcDbEntity
  8
Cut
 62
   179
420
  1842203
370
     9
100
AcDbVertex
100
AcDb2dVertex
 10
62.6545849999562
 20
-12.17720118825931
 30
0.0
  0
VERTEX
  5
142
330
13A
100
AcDbEntity
  8
Cut
 62
   179
420
  1842203
370
     9
100
AcDbVertex
100
AcDb2dVertex
 10
57.76725133477081
 20
-19.31719256580329
 30
0.0
  0
VERTEX
  5
143
330
13A
100
AcDbEntity
  8
Cut
 62
   179
420
  1842203
370
     9
100
AcDbVertex
100
AcDb2dVertex
 10
53.10117149440359
 20
-19.32894971671488
 30
0.0
  0
VERTEX
  5
144
330
13A
100
AcDbEntity
  8
Cut
 62
   179
420
  1842203
370
     9
100
AcDbVertex
100
AcDb2dVertex
 10
48.43994319988623
 20
-7.206952703658371
 30
0.0
  0
VERTEX
  5
145
330
13A
100
AcDbEntity
  8
Cut
 62
   179
420
  1842203
370
     9
100
AcDbVertex
100
AcDb2dVertex
 10
56.57467397744369
 20
-4.994609581280361
 30
0.0
  0
VERTEX
  5
146
330
13A
100
AcDbEntity
  8
Cut
 62
   179
420
  1842203
370
     9
100
AcDbVertex
100
AcDb2dVertex
 10
67.43625317080799
 20
-14.18959028767051
 30
0.0
  0
VERTEX
  5
147
330
13A
100
AcDbEntity
  8
Cut
 62
   179
420
  1842203
370
     9
100
AcDbVertex
100
AcDb2dVertex
 10
68.12768203750684
 20
0.0245707467979238
 30
0.0
  0
VERTEX
  5
148
330
13A
100
AcDbEntity
  8
Cut
 62
   179
420
  1842203
370
     9
100
AcDbVertex
100
AcDb2dVertex
 10
76.53439651366088
 20
5.226692287992501
 30
0.0
  0
VERTEX
  5
149
330
13A
100
AcDbEntity
  8
Cut
 62
   179
420
  1842203
370
     9
100
AcDbVertex
100
AcDb2dVertex
 10
84.63327323225572
 20
-3.747508317717672
 30
0.0
  0
VERTEX
  5
14A
330
13A
100
AcDbEntity
  8
Cut
 62
   179
420
  1842203
370
     9
100
AcDbVertex
100
AcDb2dVertex
 10
83.12695890534961
 20
-7.881996307486646
 30
0.0
  0
VERTEX
  5
14B
330
13A
100
AcDbEntity
  8
Cut
 62
   179
420
  1842203
370
     9
100
AcDbVertex
100
AcDb2dVertex
 10
82.93839840796015
 20
-7.826516789799946
 30
0.0
  0
VERTEX
  5
14C
330
13A
100
AcDbEntity
  8
Cut
 62
   179
420
  1842203
370
     9
100
AcDbVertex
100
AcDb2dVertex
 10
80.64914694010335
 20
-0.8400988965064222
 30
0.0
  0
VERTEX
  5
14D
330
13A
100
AcDbEntity
  8
Cut
 62
   179
420
  1842203
370
     9
100
AcDbVertex
100
AcDb2dVertex
 10
76.49653691325507
 20
-6.906802637058413
 30
0.0
  0
VERTEX
  5
14E
330
13A
100
AcDbEntity
  8
Cut
 62
   179
420
  1842203
370
     9
100
AcDbVertex
100
AcDb2dVertex
 10
69.1444227971008
 20
-6.92526766190436
 30
0.0
  0
VERTEX
  5
14F
330
13A
100
AcDbEntity
  8
Cut
 62
   179
420
  1842203
370
     9
100
AcDbVertex
100
AcDb2dVertex
 10
73.63114055479089
 20
-12.74947404501103
 30
0.0
  0
VERTEX
  5
150
330
13A
100
AcDbEntity
  8
Cut
 62
   179
420
  1842203
370
     9
100
AcDbVertex
100
AcDb2dVertex
 10
71.37682935177095
 20
-19.7472377608169
 30
0.0
  0
VERTEX
  5
151
330
13A
100
AcDbEntity
  8
Cut
 62
   179
420
  1842203
370
     9
100
AcDbVertex
100
AcDb2dVertex
 10
78.30236749307929
 20
-17.27997081573518
 30
0.0
  0
VERTEX
  5
152
330
13A
100
AcDbEntity
  8
Cut
 62
   179
420
  1842203
370
     9
100
AcDbVertex
100
AcDb2dVertex
 10
79.41105789632367
 20
-18.08124112164374
 30
0.0
  0
VERTEX
  5
153
330
13A
100
AcDbEntity
  8
Cut
 62
   179
420
  1842203
370
     9
100
AcDbVertex
100
AcDb2dVertex
 10
71.50511715105229
 20
-39.78115433399815
 30
0.0
  0
VERTEX
  5
154
330
13A
100
AcDbEntity
  8
Cut
 62
   179
420
  1842203
370
     9
100
AcDbVertex
100
AcDb2dVertex
 10
71.03658992199162
 20
-39.64334228597357
 30
0.0
  0
VERTEX
  5
155
330
13A
100
AcDbEntity
  8
Cut
 62
   179
420
  1842203
370
     9
100
AcDbVertex
100
AcDb2dVertex
 10
69.71917963011735
 20
-35.62250733164996
 30
0.0
  0
VERTEX
  5
156
330
13A
100
AcDbEntity
  8
Cut
 62
   179
420
  1842203
370
     9
100
AcDbVertex
100
AcDb2dVertex
 10
67.3291109890951
 20
-39.11408491908781
 30
0.0
  0
VERTEX
  5
157
330
13A
100
AcDbEntity
  8
Cut
 62
   179
420
  1842203
370
     9
100
AcDbVertex
100
AcDb2dVertex
 10
63.09828850462622
 20
-39.1248777973926
 30
0.0
  0
VERTEX
  5
158
330
13A
100
AcDbEntity
  8
Cut
 62
   179
420
  1842203
370
     9
100
AcDbVertex
100
AcDb2dVertex
 10
65.68024693413632
 20
-42.47645292976134
 30
0.0
  0
VERTEX
  5
159
330
13A
100
AcDbEntity
  8
Cut
 62
   179
420
  1842203
370
     9
100
AcDbVertex
100
AcDb2dVertex
 10
64.38293869314236
 20
-46.50373401758886
 30
0.0
  0
VERTEX
  5
15A
330
13A
100
AcDbEntity
  8
Cut
 62
   179
420
  1842203
370
     9
100
AcDbVertex
100
AcDb2dVertex
 10
68.36853962967946
 20
-45.08377628308121
 30
0.0
  0
VERTEX
  5
15B
330
13A
100
AcDbEntity
  8
Cut
 62
   179
420
  1842203
370
     9
100
AcDbVertex
100
AcDb2dVertex
 10
69.32210924113346
 20
-45.77293769138082
 30
0.0
  0
VERTEX
  5
15C
330
13A
100
AcDbEntity
  8
Cut
 62
   179
420
  1842203
370
     9
100
AcDbVertex
100
AcDb2dVertex
 10
66.3774686614082
 20
-53.85529032935902
 30
0.0
  0
VERTEX
  5
15D
330
13A
100
AcDbEntity
  8
Cut
 62
   179
420
  1842203
370
     9
100
AcDbVertex
100
AcDb2dVertex
 10
58.04434879481812
 20
-32.18418800885792
 30
0.0
  0
SEQEND
  5
15E
330
13A
100
AcDbEntity
  8
Cut
 62
   179
420
  1842203
370
     9
  0
POLYLINE
  5
15F
330
101
100
AcDbEntity
  8
Cut
 62
   179
420
  1842203
370
     9
100
AcDb2dPolyline
 66
     1
 10
0.0
 20
0.0
 30
0.0
  0
VERTEX
  5
160
330
15F
100
AcDbEntity
  8
Cut
 62
   179
420
  1842203
370
     9
100
AcDbVertex
100
AcDb2dVertex
 10
81.01156951974107
 20
-12.74490087575374
 30
0.0
  0
VERTEX
  5
161
330
15F
100
AcDbEntity
  8
Cut
 62
   179
420
  1842203
370
     9
100
AcDbVertex
100
AcDb2dVertex
 10
81.03613575717193
 20
-13.62079915646668
 30
0.0
  0
VERTEX
  5
162
330
15F
100
AcDbEntity
  8
Cut
 62
   179
420
  1842203
370
     9
100
AcDbVertex
100
AcDb2dVertex
 10
80.47853904493424
 20
-15.15128865582554
 30
0.0
  0
VERTEX
  5
163
330
15F
100
AcDbEntity
  8
Cut
 62
   179
420
  1842203
370
     9
100
AcDbVertex
100
AcDb2dVertex
 10
78.78124745651259
 20
-13.9246979692687
 30
0.0
  0
VERTEX
  5
164
330
15F
100
AcDbEntity
  8
Cut
 62
   179
420
  1842203
370
     9
100
AcDbVertex
100
AcDb2dVertex
 10
76.09623470626417
 20
-14.88116491988911
 30
0.0
  0
VERTEX
  5
165
330
15F
100
AcDbEntity
  8
Cut
 62
   179
420
  1842203
370
     9
100
AcDbVertex
100
AcDb2dVertex
 10
76.97027441430095
 20
-12.16816034244739
 30
0.0
  0
VERTEX
  5
166
330
15F
100
AcDbEntity
  8
Cut
 62
   179
420
  1842203
370
     9
100
AcDbVertex
100
AcDb2dVertex
 10
75.23075535984529
 20
-9.909995490965079
 30
0.0
  0
VERTEX
  5
167
330
15F
100
AcDbEntity
  8
Cut
 62
   179
420
  1842203
370
     9
100
AcDbVertex
100
AcDb2dVertex
 10
78.08113629035876
 20
-9.902947492595482
 30
0.0
  0
VERTEX
  5
168
330
15F
100
AcDbEntity
  8
Cut
 62
   179
420
  1842203
370
     9
100
AcDbVertex
100
AcDb2dVertex
 10
79.69113125466541
 20
-7.550875401879068
 30
0.0
  0
VERTEX
  5
169
330
15F
100
AcDbEntity
  8
Cut
 62
   179
420
  1842203
370
     9
100
AcDbVertex
100
AcDb2dVertex
 10
80.57882360999824
 20
-10.25943780404416
 30
0.0
  0
VERTEX
  5
16A
330
15F
100
AcDbEntity
  8
Cut
 62
   179
420
  1842203
370
     9
100
AcDbVertex
100
AcDb2dVertex
 10
82.09795954958426
 20
-10.70633554003382
 30
0.0
  0
VERTEX
  5
16B
330
15F
100
AcDbEntity
  8
Cut
 62
   179
420
  1842203
370
     9
100
AcDbVertex
100
AcDb2dVertex
 10
81.47984811720046
 20
-12.40286923037207
 30
0.0
  0
VERTEX
  5
16C
330
15F
100
AcDbEntity
  8
Cut
 62
   179
420
  1842203
370
     9
100
AcDbVertex
100
AcDb2dVertex
 10
81.01156951974107
 20
-12.74490087575374
 30
0.0
  0
SEQEND
  5
16D
330
15F
100
AcDbEntity
  8
Cut
 62
   179
420
  1842203
370
     9
  0
POLYLINE
  5
16E
330
101
100
AcDbEntity
  8
Cut
 62
   179
420
  1842203
370
     9
100
AcDb2dPolyline
 66
     1
 10
0.0
 20
0.0
 30
0.0
  0
VERTEX
  5
16F
330
16E
100
AcDbEntity
  8
Cut
 62
   179
420
  1842203
370
     9
100
AcDbVertex
100
AcDb2dVertex
 10
29.77154384527972
 20
56.31974250534797
 30
0.0
  0
VERTEX
  5
170
330
16E
100
AcDbEntity
  8
Cut
 62
   179
420
  1842203
370
     9
100
AcDbVertex
100
AcDb2dVertex
 10
26.33773036656097
 20
56.31101837052465
 30
0.0
  0
VERTEX
  5
171
330
16E
100
AcDbEntity
  8
Cut
 62
   179
420
  1842203
370
     9
100
AcDbVertex
100
AcDb2dVertex
 10
28.43321609418541
 20
53.59053792974941
 30
0.0
  0
VERTEX
  5
172
330
16E
100
AcDbEntity
  8
Cut
 62
   179
420
  1842203
370
     9
100
AcDbVertex
100
AcDb2dVertex
 10
27.38068065334201
 20
50.32199834264191
 30
0.0
  0
VERTEX
  5
173
330
16E
100
AcDbEntity
  8
Cut
 62
   179
420
  1842203
370
     9
100
AcDbVertex
100
AcDb2dVertex
 10
30.61507287646256
 20
51.47471001009781
 30
0.0
  0
VERTEX
  5
174
330
16E
100
AcDbEntity
  8
Cut
 62
   179
420
  1842203
370
     9
100
AcDbVertex
100
AcDb2dVertex
 10
33.39805834755592
 20
49.46307515484874
 30
0.0
  0
VERTEX
  5
175
330
16E
100
AcDbEntity
  8
Cut
 62
   179
420
  1842203
370
     9
100
AcDbVertex
100
AcDb2dVertex
 10
33.30170783577719
 20
52.89577089751018
 30
0.0
  0
VERTEX
  5
176
330
16E
100
AcDbEntity
  8
Cut
 62
   179
420
  1842203
370
     9
100
AcDbVertex
100
AcDb2dVertex
 10
33.43017338689339
 20
52.98960543430456
 30
0.0
  0
VERTEX
  5
177
330
16E
100
AcDbEntity
  8
Cut
 62
   179
420
  1842203
370
     9
100
AcDbVertex
100
AcDb2dVertex
 10
42.13947687978845
 20
43.33900333268159
 30
0.0
  0
VERTEX
  5
178
330
16E
100
AcDbEntity
  8
Cut
 62
   179
420
  1842203
370
     9
100
AcDbVertex
100
AcDb2dVertex
 10
39.73697127529643
 20
43.28107893573373
 30
0.0
  0
VERTEX
  5
179
330
16E
100
AcDbEntity
  8
Cut
 62
   179
420
  1842203
370
     9
100
AcDbVertex
100
AcDb2dVertex
 10
35.22869893985524
 20
49.50557365227849
 30
0.0
  0
VERTEX
  5
17A
330
16E
100
AcDbEntity
  8
Cut
 62
   179
420
  1842203
370
     9
100
AcDbVertex
100
AcDb2dVertex
 10
33.03046657305145
 20
42.14099873123659
 30
0.0
  0
VERTEX
  5
17B
330
16E
100
AcDbEntity
  8
Cut
 62
   179
420
  1842203
370
     9
100
AcDbVertex
100
AcDb2dVertex
 10
29.8586422849217
 20
41.11557912234575
 30
0.0
  0
VERTEX
  5
17C
330
16E
100
AcDbEntity
  8
Cut
 62
   179
420
  1842203
370
     9
100
AcDbVertex
100
AcDb2dVertex
 10
19.25137963769172
 20
68.70083846989165
 30
0.0
  0
VERTEX
  5
17D
330
16E
100
AcDbEntity
  8
Cut
 62
   179
420
  1842203
370
     9
100
AcDbVertex
100
AcDb2dVertex
 10
30.05334411574791
 20
56.73140128371117
 30
0.0
  0
VERTEX
  5
17E
330
16E
100
AcDbEntity
  8
Cut
 62
   179
420
  1842203
370
     9
100
AcDbVertex
100
AcDb2dVertex
 10
29.77154384527972
 20
56.31974250534797
 30
0.0
  0
SEQEND
  5
17F
330
16E
100
AcDbEntity
  8
Cut
 62
   179
420
  1842203
370
     9
  0
ENDBLK
  5
104
330
101
100
AcDbEntity
  8
0
100
AcDbBlockEnd
  0
BLOCK
  5
182
330
180
100
AcDbEntity
  8
0
100
AcDbBlockBegin
  2
block 6
 70
     0
 10
0.0
 20
0.0
 30
0.0
  3
block 6
  1

  0
POLYLINE
  5
184
330
180
100
AcDbEntity
  8
Cut
 62
   179
420
  1842203
370
     9
100
AcDb2dPolyline
 66
     1
 10
0.0
 20
0.0
 30
0.0
  0
VERTEX
  5
185
330
184
100
AcDbEntity
  8
Cut
 62
   179
420
  1842203
370
     9
100
AcDbVertex
100
AcDb2dVertex
 10
117.3774302638702
 20
28.26527048541502
 30
0.0
  0
VERTEX
  5
186
330
184
100
AcDbEntity
  8
Cut
 62
   179
420
  1842203
370
     9
100
AcDbVertex
100
AcDb2dVertex
 10
114.3620427228736
 20
31.11824855799494
 30
0.0
  0
VERTEX
  5
187
330
184
100
AcDbEntity
  8
Cut
 62
   179
420
  1842203
370
     9
100
AcDbVertex
100
AcDb2dVertex
 10
113.9317190933236
 20
26.98968577515782
 30
0.0
  0
VERTEX
  5
188
330
184
100
AcDbEntity
  8
Cut
 62
   179
420
  1842203
370
     9
100
AcDbVertex
100
AcDb2dVertex
 10
110.2864388034464
 20
25.00335576437708
 30
0.0
  0
VERTEX
  5
189
330
184
100
AcDbEntity
  8
Cut
 62
   179
420
  1842203
370
     9
100
AcDbVertex
100
AcDb2dVertex
 10
114.0802027623865
 20
23.31819773535181
 30
0.0
  0
VERTEX
  5
18A
330
184
100
AcDbEntity
  8
Cut
 62
   179
420
  1842203
370
     9
100
AcDbVertex
100
AcDb2dVertex
 10
114.8427015366979
 20
19.2377176476016
 30
0.0
  0
VERTEX
  5
18B
330
184
100
AcDbEntity
  8
Cut
 62
   179
420
  1842203
370
     9
100
AcDbVertex
100
AcDb2dVertex
 10
117.6176957942413
 20
22.32494725726358
 30
0.0
  0
VERTEX
  5
18C
330
184
100
AcDbEntity
  8
Cut
 62
   179
420
  1842203
370
     9
100
AcDbVertex
100
AcDb2dVertex
 10
121.7342638380466
 20
21.78924591301798
 30
0.0
  0
VERTEX
  5
18D
330
184
100
AcDbEntity
  8
Cut
 62
   179
420
  1842203
370
     9
100
AcDbVertex
100
AcDb2dVertex
 10
119.6555677340821
 20
25.38257307652446
 30
0.0
  0
VERTEX
  5
18E
330
184
100
AcDbEntity
  8
Cut
 62
   179
420
  1842203
370
     9
100
AcDbVertex
100
AcDb2dVertex
 10
121.2065842820398
 20
28.6466450910207
 30
0.0
  0
VERTEX
  5
18F
330
184
100
AcDbEntity
  8
Cut
 62
   179
420
  1842203
370
     9
100
AcDbVertex
100
AcDb2dVertex
 10
120.6005902807151
 20
28.95329494215412
 30
0.0
  0
VERTEX
  5
190
330
184
100
AcDbEntity
  8
Cut
 62
   179
420
  1842203
370
     9
100
AcDbVertex
100
AcDb2dVertex
 10
117.3774302638702
 20
28.26527048541502
 30
0.0
  0
SEQEND
  5
191
330
184
100
AcDbEntity
  8
Cut
 62
   179
420
  1842203
370
     9
  0
INSERT
  5
193
330
180
100
AcDbEntity
  8
Cut
100
AcDbBlockReference
  2
block 7
 10
0.0
 20
0.0
 30
0.0
  0
ENDBLK
  5
183
330
180
100
AcDbEntity
  8
0
100
AcDbBlockEnd
  0
BLOCK
  5
194
330
192
100
AcDbEntity
  8
0
100
AcDbBlockBegin
  2
block 7
 70
     0
 10
0.0
 20
0.0
 30
0.0
  3
block 7
  1

  0
POLYLINE
  5
196
330
192
100
AcDbEntity
  8
Cut
 62
   179
420
  1842203
370
     9
100
AcDb2dPolyline
 66
     1
 10
0.0
 20
0.0
 30
0.0
  0
VERTEX
  5
197
330
196
100
AcDbEntity
  8
Cut
 62
   179
420
  1842203
370
     9
100
AcDbVertex
100
AcDb2dVertex
 10
61.65476135518922
 20
53.62947088039017
 30
0.0
  0
VERTEX
  5
198
330
196
100
AcDbEntity
  8
Cut
 62
   179
420
  1842203
370
     9
100
AcDbVertex
100
AcDb2dVertex
 10
63.28901649750915
 20
46.11963853856387
 30
0.0
  0
VERTEX
  5
199
330
196
100
AcDbEntity
  8
Cut
 62
   179
420
  1842203
370
     9
100
AcDbVertex
100
AcDb2dVertex
 10
56.33420630325546
 20
49.39052347204178
 30
0.0
  0
VERTEX
  5
19A
330
196
100
AcDbEntity
  8
Cut
 62
   179
420
  1842203
370
     9
100
AcDbVertex
100
AcDb2dVertex
 10
53.23166071728701
 20
47.579226122219
 30
0.0
  0
VERTEX
  5
19B
330
196
100
AcDbEntity
  8
Cut
 62
   179
420
  1842203
370
     9
100
AcDbVertex
100
AcDb2dVertex
 10
60.61141907020779
 20
39.41981240183836
 30
0.0
  0
VERTEX
  5
19C
330
196
100
AcDbEntity
  8
Cut
 62
   179
420
  1842203
370
     9
100
AcDbVertex
100
AcDb2dVertex
 10
59.2106121762055
 20
44.45297775577553
 30
0.0
  0
VERTEX
  5
19D
330
196
100
AcDbEntity
  8
Cut
 62
   179
420
  1842203
370
     9
100
AcDbVertex
100
AcDb2dVertex
 10
64.07578566555937
 20
42.53747140764138
 30
0.0
  0
VERTEX
  5
19E
330
196
100
AcDbEntity
  8
Cut
 62
   179
420
  1842203
370
     9
100
AcDbVertex
100
AcDb2dVertex
 10
68.4743057263373
 20
45.63544150574437
 30
0.0
  0
VERTEX
  5
19F
330
196
100
AcDbEntity
  8
Cut
 62
   179
420
  1842203
370
     9
100
AcDbVertex
100
AcDb2dVertex
 10
68.14726118851932
 20
40.19396550349207
 30
0.0
  0
VERTEX
  5
1A0
330
196
100
AcDbEntity
  8
Cut
 62
   179
420
  1842203
370
     9
100
AcDbVertex
100
AcDb2dVertex
 10
72.2268177172773
 20
36.95660643561569
 30
0.0
  0
VERTEX
  5
1A1
330
196
100
AcDbEntity
  8
Cut
 62
   179
420
  1842203
370
     9
100
AcDbVertex
100
AcDb2dVertex
 10
67.20868589356522
 20
35.56344495730451
 30
0.0
  0
VERTEX
  5
1A2
330
196
100
AcDbEntity
  8
Cut
 62
   179
420
  1842203
370
     9
100
AcDbVertex
100
AcDb2dVertex
 10
66.33463905086217
 20
33.09194671821177
 30
0.0
  0
VERTEX
  5
1A3
330
196
100
AcDbEntity
  8
Cut
 62
   179
420
  1842203
370
     9
100
AcDbVertex
100
AcDb2dVertex
 10
68.90806310009548
 20
30.24664603335066
 30
0.0
  0
VERTEX
  5
1A4
330
196
100
AcDbEntity
  8
Cut
 62
   179
420
  1842203
370
     9
100
AcDbVertex
100
AcDb2dVertex
 10
76.9963368483639
 20
35.49481846456895
 30
0.0
  0
VERTEX
  5
1A5
330
196
100
AcDbEntity
  8
Cut
 62
   179
420
  1842203
370
     9
100
AcDbVertex
100
AcDb2dVertex
 10
77.38299622955643
 20
49.72033600581435
 30
0.0
  0
VERTEX
  5
1A6
330
196
100
AcDbEntity
  8
Cut
 62
   179
420
  1842203
370
     9
100
AcDbVertex
100
AcDb2dVertex
 10
88.4389937855869
 20
40.76042817964129
 30
0.0
  0
VERTEX
  5
1A7
330
196
100
AcDbEntity
  8
Cut
 62
   179
420
  1842203
370
     9
100
AcDbVertex
100
AcDb2dVertex
 10
94.01513402274576
 20
42.40607534196024
 30
0.0
  0
VERTEX
  5
1A8
330
196
100
AcDbEntity
  8
Cut
 62
   179
420
  1842203
370
     9
100
AcDbVertex
100
AcDb2dVertex
 10
64.93318005130436
 20
57.12214382162465
 30
0.0
  0
VERTEX
  5
1A9
330
196
100
AcDbEntity
  8
Cut
 62
   179
420
  1842203
370
     9
100
AcDbVertex
100
AcDb2dVertex
 10
61.65476135518922
 20
53.62947088039017
 30
0.0
  0
SEQEND
  5
1AA
330
196
100
AcDbEntity
  8
Cut
 62
   179
420
  1842203
370
     9
  0
POLYLINE
  5
1AB
330
192
100
AcDbEntity
  8
Cut
 62
   179
420
  1842203
370
     9
100
AcDb2dPolyline
 66
     1
 10
0.0
 20
0.0
 30
0.0
  0
VERTEX
  5
1AC
330
1AB
100
AcDbEntity
  8
Cut
 62
   179
420
  1842203
370
     9
100
AcDbVertex
100
AcDb2dVertex
 10
53.83231419968903
 20
54.33025489074599
 30
0.0
  0
VERTEX
  5
1AD
330
1AB
100
AcDbEntity
  8
Cut
 62
   179
420
  1842203
370
     9
100
AcDbVertex
100
AcDb2dVertex
 10
53.43392744929485
 20
51.17122323531985
 30
0.0
  0
VERTEX
  5
1AE
330
1AB
100
AcDbEntity
  8
Cut
 62
   179
420
  1842203
370
     9
100
AcDbVertex
100
AcDb2dVertex
 10
56.18383628295857
 20
52.77648582655954
 30
0.0
  0
VERTEX
  5
1AF
330
1AB
100
AcDbEntity
  8
Cut
 62
   179
420
  1842203
370
     9
100
AcDbVertex
100
AcDb2dVertex
 10
59.06510794589696
 20
51.42151154475148
 30
0.0
  0
VERTEX
  5
1B0
330
1AB
100
AcDbEntity
  8
Cut
 62
   179
420
  1842203
370
     9
100
AcDbVertex
100
AcDb2dVertex
 10
58.38800428683864
 20
54.53267132957654
 30
0.0
  0
VERTEX
  5
1B1
330
1AB
100
AcDbEntity
  8
Cut
 62
   179
420
  1842203
370
     9
100
AcDbVertex
100
AcDb2dVertex
 10
60.56712500311622
 20
56.85428077167154
 30
0.0
  0
VERTEX
  5
1B2
330
1AB
100
AcDbEntity
  8
Cut
 62
   179
420
  1842203
370
     9
100
AcDbVertex
100
AcDb2dVertex
 10
57.39891908018606
 20
57.17190530841741
 30
0.0
  0
VERTEX
  5
1B3
330
1AB
100
AcDbEntity
  8
Cut
 62
   179
420
  1842203
370
     9
100
AcDbVertex
100
AcDb2dVertex
 10
55.86443968147814
 20
59.96167893978791
 30
0.0
  0
VERTEX
  5
1B4
330
1AB
100
AcDbEntity
  8
Cut
 62
   179
420
  1842203
370
     9
100
AcDbVertex
100
AcDb2dVertex
 10
54.58338660483977
 20
57.04669727715951
 30
0.0
  0
VERTEX
  5
1B5
330
1AB
100
AcDbEntity
  8
Cut
 62
   179
420
  1842203
370
     9
100
AcDbVertex
100
AcDb2dVertex
 10
51.45574482881732
 20
56.44944789400915
 30
0.0
  0
VERTEX
  5
1B6
330
1AB
100
AcDbEntity
  8
Cut
 62
   179
420
  1842203
370
     9
100
AcDbVertex
100
AcDb2dVertex
 10
53.83231419968903
 20
54.33025489074599
 30
0.0
  0
SEQEND
  5
1B7
330
1AB
100
AcDbEntity
  8
Cut
 62
   179
420
  1842203
370
     9
  0
POLYLINE
  5
1B8
330
192
100
AcDbEntity
  8
Cut
 62
   179
420
  1842203
370
     9
100
AcDb2dPolyline
 66
     1
 10
0.0
 20
0.0
 30
0.0
  0
VERTEX
  5
1B9
330
1B8
100
AcDbEntity
  8
Cut
 62
   179
420
  1842203
370
     9
100
AcDbVertex
100
AcDb2dVertex
 10
93.61677162520519
 20
31.10870763389426
 30
0.0
  0
VERTEX
  5
1BA
330
1B8
100
AcDbEntity
  8
Cut
 62
   179
420
  1842203
370
     9
100
AcDbVertex
100
AcDb2dVertex
 10
97.10682547420251
 20
40.19064928385415
 30
0.0
  0
VERTEX
  5
1BB
330
1B8
100
AcDbEntity
  8
Cut
 62
   179
420
  1842203
370
     9
100
AcDbVertex
100
AcDb2dVertex
 10
87.77538641443033
 20
37.43677016662841
 30
0.0
  0
VERTEX
  5
1BC
330
1B8
100
AcDbEntity
  8
Cut
 62
   179
420
  1842203
370
     9
100
AcDbVertex
100
AcDb2dVertex
 10
80.21671047380525
 20
43.56244799723553
 30
0.0
  0
VERTEX
  5
1BD
330
1B8
100
AcDbEntity
  8
Cut
 62
   179
420
  1842203
370
     9
100
AcDbVertex
100
AcDb2dVertex
 10
79.9522798846943
 20
33.83669632694227
 30
0.0
  0
VERTEX
  5
1BE
330
1B8
100
AcDbEntity
  8
Cut
 62
   179
420
  1842203
370
     9
100
AcDbVertex
100
AcDb2dVertex
 10
71.79053917913038
 20
28.54074467353524
 30
0.0
  0
VERTEX
  5
1BF
330
1B8
100
AcDbEntity
  8
Cut
 62
   179
420
  1842203
370
     9
100
AcDbVertex
100
AcDb2dVertex
 10
80.95857680830086
 20
25.28394085477229
 30
0.0
  0
VERTEX
  5
1C0
330
1B8
100
AcDbEntity
  8
Cut
 62
   179
420
  1842203
370
     9
100
AcDbVertex
100
AcDb2dVertex
 10
83.47309071603532
 20
15.88511841322478
 30
0.0
  0
VERTEX
  5
1C1
330
1B8
100
AcDbEntity
  8
Cut
 62
   179
420
  1842203
370
     9
100
AcDbVertex
100
AcDb2dVertex
 10
89.40369818504094
 20
23.59809927103589
 30
0.0
  0
VERTEX
  5
1C2
330
1B8
100
AcDbEntity
  8
Cut
 62
   179
420
  1842203
370
     9
100
AcDbVertex
100
AcDb2dVertex
 10
99.11954707449817
 20
23.08525388542534
 30
0.0
  0
VERTEX
  5
1C3
330
1B8
100
AcDbEntity
  8
Cut
 62
   179
420
  1842203
370
     9
100
AcDbVertex
100
AcDb2dVertex
 10
93.61677162520519
 20
31.10870763389426
 30
0.0
  0
SEQEND
  5
1C4
330
1B8
100
AcDbEntity
  8
Cut
 62
   179
420
  1842203
370
     9
  0
POLYLINE
  5
1C5
330
192
100
AcDbEntity
  8
Cut
 62
   179
420
  1842203
370
     9
100
AcDb2dPolyline
 66
     1
 10
0.0
 20
0.0
 30
0.0
  0
VERTEX
  5
1C6
330
1C5
100
AcDbEntity
  8
Cut
 62
   179
420
  1842203
370
     9
100
AcDbVertex
100
AcDb2dVertex
 10
79.7249367312106
 20
18.28699330537059
 30
0.0
  0
VERTEX
  5
1C7
330
1C5
100
AcDbEntity
  8
Cut
 62
   179
420
  1842203
370
     9
100
AcDbVertex
100
AcDb2dVertex
 10
78.46801633840445
 20
22.98490892640193
 30
0.0
  0
VERTEX
  5
1C8
330
1C5
100
AcDbEntity
  8
Cut
 62
   179
420
  1842203
370
     9
100
AcDbVertex
100
AcDb2dVertex
 10
74.05940304578715
 20
24.55107826254608
 30
0.0
  0
VERTEX
  5
1C9
330
1C5
100
AcDbEntity
  8
Cut
 62
   179
420
  1842203
370
     9
100
AcDbVertex
100
AcDb2dVertex
 10
79.7249367312106
 20
18.28699330537059
 30
0.0
  0
SEQEND
  5
1CA
330
1C5
100
AcDbEntity
  8
Cut
 62
   179
420
  1842203
370
     9
  0
POLYLINE
  5
1CB
330
192
100
AcDbEntity
  8
Cut
 62
   179
420
  1842203
370
     9
100
AcDb2dPolyline
 66
     1
 10
0.0
 20
0.0
 30
0.0
  0
VERTEX
  5
1CC
330
1CB
100
AcDbEntity
  8
Cut
 62
   179
420
  1842203
370
     9
100
AcDbVertex
100
AcDb2dVertex
 10
123.8842076064384
 20
27.29172050916453
 30
0.0
  0
VERTEX
  5
1CD
330
1CB
100
AcDbEntity
  8
Cut
 62
   179
420
  1842203
370
     9
100
AcDbVertex
100
AcDb2dVertex
 10
123.0420751890329
 20
25.51950061640275
 30
0.0
  0
VERTEX
  5
1CE
330
1CB
100
AcDbEntity
  8
Cut
 62
   179
420
  1842203
370
     9
100
AcDbVertex
100
AcDb2dVertex
 10
127.3748776046253
 20
18.02976614986784
 30
0.0
  0
VERTEX
  5
1CF
330
1CB
100
AcDbEntity
  8
Cut
 62
   179
420
  1842203
370
     9
100
AcDbVertex
100
AcDb2dVertex
 10
118.7946134325204
 20
19.14651334853659
 30
0.0
  0
VERTEX
  5
1D0
330
1CB
100
AcDbEntity
  8
Cut
 62
   179
420
  1842203
370
     9
100
AcDbVertex
100
AcDb2dVertex
 10
113.0103173193618
 20
12.71136106141057
 30
0.0
  0
VERTEX
  5
1D1
330
1CB
100
AcDbEntity
  8
Cut
 62
   179
420
  1842203
370
     9
100
AcDbVertex
100
AcDb2dVertex
 10
111.4210201968595
 20
21.21690147543851
 30
0.0
  0
VERTEX
  5
1D2
330
1CB
100
AcDbEntity
  8
Cut
 62
   179
420
  1842203
370
     9
100
AcDbVertex
100
AcDb2dVertex
 10
103.5134238935451
 20
24.72950068461889
 30
0.0
  0
VERTEX
  5
1D3
330
1CB
100
AcDbEntity
  8
Cut
 62
   179
420
  1842203
370
     9
100
AcDbVertex
100
AcDb2dVertex
 10
111.1112844569517
 20
28.8693101108235
 30
0.0
  0
VERTEX
  5
1D4
330
1CB
100
AcDbEntity
  8
Cut
 62
   179
420
  1842203
370
     9
100
AcDbVertex
100
AcDb2dVertex
 10
111.5951067004442
 20
33.51025347871469
 30
0.0
  0
VERTEX
  5
1D5
330
1CB
100
AcDbEntity
  8
Cut
 62
   179
420
  1842203
370
     9
100
AcDbVertex
100
AcDb2dVertex
 10
100.006955701789
 20
39.37409328131397
 30
0.0
  0
VERTEX
  5
1D6
330
1CB
100
AcDbEntity
  8
Cut
 62
   179
420
  1842203
370
     9
100
AcDbVertex
100
AcDb2dVertex
 10
96.9828745146915
 20
31.50496118887052
 30
0.0
  0
VERTEX
  5
1D7
330
1CB
100
AcDbEntity
  8
Cut
 62
   179
420
  1842203
370
     9
100
AcDbVertex
100
AcDb2dVertex
 10
105.0316642389781
 20
19.76875410400589
 30
0.0
  0
VERTEX
  5
1D8
330
1CB
100
AcDbEntity
  8
Cut
 62
   179
420
  1842203
370
     9
100
AcDbVertex
100
AcDb2dVertex
 10
90.82049143062423
 20
20.51909749379235
 30
0.0
  0
VERTEX
  5
1D9
330
1CB
100
AcDbEntity
  8
Cut
 62
   179
420
  1842203
370
     9
100
AcDbVertex
100
AcDb2dVertex
 10
84.79445572986208
 20
12.68189068612895
 30
0.0
  0
VERTEX
  5
1DA
330
1CB
100
AcDbEntity
  8
Cut
 62
   179
420
  1842203
370
     9
100
AcDbVertex
100
AcDb2dVertex
 10
92.90313545175573
 20
3.716546644639026
 30
0.0
  0
VERTEX
  5
1DB
330
1CB
100
AcDbEntity
  8
Cut
 62
   179
420
  1842203
370
     9
100
AcDbVertex
100
AcDb2dVertex
 10
97.16881736407895
 20
4.796792733206559
 30
0.0
  0
VERTEX
  5
1DC
330
1CB
100
AcDbEntity
  8
Cut
 62
   179
420
  1842203
370
     9
100
AcDbVertex
100
AcDb2dVertex
 10
97.13270158839316
 20
4.989999070590527
 30
0.0
  0
VERTEX
  5
1DD
330
1CB
100
AcDbEntity
  8
Cut
 62
   179
420
  1842203
370
     9
100
AcDbVertex
100
AcDb2dVertex
 10
90.41377088275331
 20
7.974404779543052
 30
0.0
  0
VERTEX
  5
1DE
330
1CB
100
AcDbEntity
  8
Cut
 62
   179
420
  1842203
370
     9
100
AcDbVertex
100
AcDb2dVertex
 10
96.86951089965852
 20
11.49185913530061
 30
0.0
  0
VERTEX
  5
1DF
330
1CB
100
AcDbEntity
  8
Cut
 62
   179
420
  1842203
370
     9
100
AcDbVertex
100
AcDb2dVertex
 10
97.6317861441932
 20
18.8043730249055
 30
0.0
  0
VERTEX
  5
1E0
330
1CB
100
AcDbEntity
  8
Cut
 62
   179
420
  1842203
370
     9
100
AcDbVertex
100
AcDb2dVertex
 10
102.9721248994156
 20
13.75137409262318
 30
0.0
  0
VERTEX
  5
1E1
330
1CB
100
AcDbEntity
  8
Cut
 62
   179
420
  1842203
370
     9
100
AcDbVertex
100
AcDb2dVertex
 10
110.1620720426679
 20
15.28606497340731
 30
0.0
  0
VERTEX
  5
1E2
330
1CB
100
AcDbEntity
  8
Cut
 62
   179
420
  1842203
370
     9
100
AcDbVertex
100
AcDb2dVertex
 10
107.0067244152674
 20
8.645713621613755
 30
0.0
  0
VERTEX
  5
1E3
330
1CB
100
AcDbEntity
  8
Cut
 62
   179
420
  1842203
370
     9
100
AcDbVertex
100
AcDb2dVertex
 10
107.6917024892406
 20
7.461638644445676
 30
0.0
  0
VERTEX
  5
1E4
330
1CB
100
AcDbEntity
  8
Cut
 62
   179
420
  1842203
370
     9
100
AcDbVertex
100
AcDb2dVertex
 10
130.0801917913022
 20
13.13135462171662
 30
0.0
  0
VERTEX
  5
1E5
330
1CB
100
AcDbEntity
  8
Cut
 62
   179
420
  1842203
370
     9
100
AcDbVertex
100
AcDb2dVertex
 10
129.9904937475521
 20
13.61142147737228
 30
0.0
  0
VERTEX
  5
1E6
330
1CB
100
AcDbEntity
  8
Cut
 62
   179
420
  1842203
370
     9
100
AcDbVertex
100
AcDb2dVertex
 10
126.1235929904611
 20
15.3289086365251
 30
0.0
  0
VERTEX
  5
1E7
330
1CB
100
AcDbEntity
  8
Cut
 62
   179
420
  1842203
370
     9
100
AcDbVertex
100
AcDb2dVertex
 10
129.8390844246735
 20
17.35342476641714
 30
0.0
  0
VERTEX
  5
1E8
330
1CB
100
AcDbEntity
  8
Cut
 62
   179
420
  1842203
370
     9
100
AcDbVertex
100
AcDb2dVertex
 10
130.2779069347963
 20
21.56144213638046
 30
0.0
  0
VERTEX
  5
1E9
330
1CB
100
AcDbEntity
  8
Cut
 62
   179
420
  1842203
370
     9
100
AcDbVertex
100
AcDb2dVertex
 10
133.3510324978797
 20
18.65361399958292
 30
0.0
  0
VERTEX
  5
1EA
330
1CB
100
AcDbEntity
  8
Cut
 62
   179
420
  1842203
370
     9
100
AcDbVertex
100
AcDb2dVertex
 10
137.4889099566399
 20
19.53677410330765
 30
0.0
  0
VERTEX
  5
1EB
330
1CB
100
AcDbEntity
  8
Cut
 62
   179
420
  1842203
370
     9
100
AcDbVertex
100
AcDb2dVertex
 10
135.6729667046042
 20
15.71530254139529
 30
0.0
  0
VERTEX
  5
1EC
330
1CB
100
AcDbEntity
  8
Cut
 62
   179
420
  1842203
370
     9
100
AcDbVertex
100
AcDb2dVertex
 10
136.2621067397828
 20
14.69689571230898
 30
0.0
  0
VERTEX
  5
1ED
330
1CB
100
AcDbEntity
  8
Cut
 62
   179
420
  1842203
370
     9
100
AcDbVertex
100
AcDb2dVertex
 10
144.6009257946749
 20
16.8086317465092
 30
0.0
  0
VERTEX
  5
1EE
330
1CB
100
AcDbEntity
  8
Cut
 62
   179
420
  1842203
370
     9
100
AcDbVertex
100
AcDb2dVertex
 10
123.8842076064384
 20
27.29172050916453
 30
0.0
  0
SEQEND
  5
1EF
330
1CB
100
AcDbEntity
  8
Cut
 62
   179
420
  1842203
370
     9
  0
POLYLINE
  5
1F0
330
192
100
AcDbEntity
  8
Cut
 62
   179
420
  1842203
370
     9
100
AcDb2dPolyline
 66
     1
 10
0.0
 20
0.0
 30
0.0
  0
VERTEX
  5
1F1
330
1F0
100
AcDbEntity
  8
Cut
 62
   179
420
  1842203
370
     9
100
AcDbVertex
100
AcDb2dVertex
 10
102.2208052498546
 20
6.409285057154619
 30
0.0
  0
VERTEX
  5
1F2
330
1F0
100
AcDbEntity
  8
Cut
 62
   179
420
  1842203
370
     9
100
AcDbVertex
100
AcDb2dVertex
 10
103.0897226481742
 20
6.296219354683189
 30
0.0
  0
VERTEX
  5
1F3
330
1F0
100
AcDbEntity
  8
Cut
 62
   179
420
  1842203
370
     9
100
AcDbVertex
100
AcDb2dVertex
 10
104.6687765069124
 20
6.696095726015018
 30
0.0
  0
VERTEX
  5
1F4
330
1F0
100
AcDbEntity
  8
Cut
 62
   179
420
  1842203
370
     9
100
AcDbVertex
100
AcDb2dVertex
 10
103.6202169603173
 20
8.508786081735463
 30
0.0
  0
VERTEX
  5
1F5
330
1F0
100
AcDbEntity
  8
Cut
 62
   179
420
  1842203
370
     9
100
AcDbVertex
100
AcDb2dVertex
 10
104.8434514054499
 20
11.08324136176323
 30
0.0
  0
VERTEX
  5
1F6
330
1F0
100
AcDbEntity
  8
Cut
 62
   179
420
  1842203
370
     9
100
AcDbVertex
100
AcDb2dVertex
 10
102.0559327907476
 20
10.48819579952686
 30
0.0
  0
VERTEX
  5
1F7
330
1F0
100
AcDbEntity
  8
Cut
 62
   179
420
  1842203
370
     9
100
AcDbVertex
100
AcDb2dVertex
 10
99.9853659145875
 20
12.44727411563242
 30
0.0
  0
VERTEX
  5
1F8
330
1F0
100
AcDbEntity
  8
Cut
 62
   179
420
  1842203
370
     9
100
AcDbVertex
100
AcDb2dVertex
 10
99.68994553603014
 20
9.61223479963493
 30
0.0
  0
VERTEX
  5
1F9
330
1F0
100
AcDbEntity
  8
Cut
 62
   179
420
  1842203
370
     9
100
AcDbVertex
100
AcDb2dVertex
 10
97.18704129881938
 20
8.248490951119045
 30
0.0
  0
VERTEX
  5
1FA
330
1F0
100
AcDbEntity
  8
Cut
 62
   179
420
  1842203
370
     9
100
AcDbVertex
100
AcDb2dVertex
 10
99.79188415391947
 20
7.091295330503827
 30
0.0
  0
VERTEX
  5
1FB
330
1F0
100
AcDbEntity
  8
Cut
 62
   179
420
  1842203
370
     9
100
AcDbVertex
100
AcDb2dVertex
 10
100.082778449897
 20
5.534737558385658
 30
0.0
  0
VERTEX
  5
1FC
330
1F0
100
AcDbEntity
  8
Cut
 62
   179
420
  1842203
370
     9
100
AcDbVertex
100
AcDb2dVertex
 10
101.8331473700324
 20
5.97801732187565
 30
0.0
  0
VERTEX
  5
1FD
330
1F0
100
AcDbEntity
  8
Cut
 62
   179
420
  1842203
370
     9
100
AcDbVertex
100
AcDb2dVertex
 10
102.2208052498546
 20
6.409285057154619
 30
0.0
  0
SEQEND
  5
1FE
330
1F0
100
AcDbEntity
  8
Cut
 62
   179
420
  1842203
370
     9
  0
POLYLINE
  5
1FF
330
192
100
AcDbEntity
  8
Cut
 62
   179
420
  1842203
370
     9
100
AcDb2dPolyline
 66
     1
 10
0.0
 20
0.0
 30
0.0
  0
VERTEX
  5
200
330
1FF
100
AcDbEntity
  8
Cut
 62
   179
420
  1842203
370
     9
100
AcDbVertex
100
AcDb2dVertex
 10
38.69520130341404
 20
64.37447150314422
 30
0.0
  0
VERTEX
  5
201
330
1FF
100
AcDbEntity
  8
Cut
 62
   179
420
  1842203
370
     9
100
AcDbVertex
100
AcDb2dVertex
 10
39.05132235612511
 20
67.78977952921936
 30
0.0
  0
VERTEX
  5
202
330
1FF
100
AcDbEntity
  8
Cut
 62
   179
420
  1842203
370
     9
100
AcDbVertex
100
AcDb2dVertex
 10
41.54581458186058
 20
65.42978317348825
 30
0.0
  0
VERTEX
  5
203
330
1FF
100
AcDbEntity
  8
Cut
 62
   179
420
  1842203
370
     9
100
AcDbVertex
100
AcDb2dVertex
 10
44.90407777421195
 20
66.14619800975245
 30
0.0
  0
VERTEX
  5
204
330
1FF
100
AcDbEntity
  8
Cut
 62
   179
420
  1842203
370
     9
100
AcDbVertex
100
AcDb2dVertex
 10
43.43001819663113
 20
63.04503925808984
 30
0.0
  0
VERTEX
  5
205
330
1FF
100
AcDbEntity
  8
Cut
 62
   179
420
  1842203
370
     9
100
AcDbVertex
100
AcDb2dVertex
 10
45.14973979887128
 20
60.07279422546517
 30
0.0
  0
VERTEX
  5
206
330
1FF
100
AcDbEntity
  8
Cut
 62
   179
420
  1842203
370
     9
100
AcDbVertex
100
AcDb2dVertex
 10
41.74441002478697
 20
60.51597885126648
 30
0.0
  0
VERTEX
  5
207
330
1FF
100
AcDbEntity
  8
Cut
 62
   179
420
  1842203
370
     9
100
AcDbVertex
100
AcDb2dVertex
 10
41.63805859721576
 20
60.39766700920342
 30
0.0
  0
VERTEX
  5
208
330
1FF
100
AcDbEntity
  8
Cut
 62
   179
420
  1842203
370
     9
100
AcDbVertex
100
AcDb2dVertex
 10
50.3579039632421
 20
50.75658900683284
 30
0.0
  0
VERTEX
  5
209
330
1FF
100
AcDbEntity
  8
Cut
 62
   179
420
  1842203
370
     9
100
AcDbVertex
100
AcDb2dVertex
 10
50.6586225101227
 20
53.14090374506242
 30
0.0
  0
VERTEX
  5
20A
330
1FF
100
AcDbEntity
  8
Cut
 62
   179
420
  1842203
370
     9
100
AcDbVertex
100
AcDb2dVertex
 10
44.92223069211585
 20
58.25584879238189
 30
0.0
  0
VERTEX
  5
20B
330
1FF
100
AcDbEntity
  8
Cut
 62
   179
420
  1842203
370
     9
100
AcDbVertex
100
AcDb2dVertex
 10
52.47143232903368
 20
59.69763378025444
 30
0.0
  0
VERTEX
  5
20C
330
1FF
100
AcDbEntity
  8
Cut
 62
   179
420
  1842203
370
     9
100
AcDbVertex
100
AcDb2dVertex
 10
53.81252234793205
 20
62.74942542620155
 30
0.0
  0
VERTEX
  5
20D
330
1FF
100
AcDbEntity
  8
Cut
 62
   179
420
  1842203
370
     9
100
AcDbVertex
100
AcDb2dVertex
 10
27.44210262086455
 20
76.0933947590848
 30
0.0
  0
VERTEX
  5
20E
330
1FF
100
AcDbEntity
  8
Cut
 62
   179
420
  1842203
370
     9
100
AcDbVertex
100
AcDb2dVertex
 10
38.25714196066961
 20
64.13577011128949
 30
0.0
  0
VERTEX
  5
20F
330
1FF
100
AcDbEntity
  8
Cut
 62
   179
420
  1842203
370
     9
100
AcDbVertex
100
AcDb2dVertex
 10
38.69520130341404
 20
64.37447150314422
 30
0.0
  0
SEQEND
  5
210
330
1FF
100
AcDbEntity
  8
Cut
 62
   179
420
  1842203
370
     9
  0
ENDBLK
  5
195
330
192
100
AcDbEntity
  8
0
100
AcDbBlockEnd
  0
BLOCK
  5
213
330
211
100
AcDbEntity
  8
0
100
AcDbBlockBegin
  2
block 8
 70
     0
 10
0.0
 20
0.0
 30
0.0
  3
block 8
  1

  0
POLYLINE
  5
215
330
211
100
AcDbEntity
  8
Cut
 62
   179
420
  1842203
370
     9
100
AcDb2dPolyline
 66
     1
 10
0.0
 20
0.0
 30
0.0
  0
VERTEX
  5
216
330
215
100
AcDbEntity
  8
Cut
 62
   179
420
  1842203
370
     9
100
AcDbVertex
100
AcDb2dVertex
 10
124.2130138722699
 20
41.77416632717312
 30
0.0
  0
VERTEX
  5
217
330
215
100
AcDbEntity
  8
Cut
 62
   179
420
  1842203
370
     9
100
AcDbVertex
100
AcDb2dVertex
 10
120.1283052188888
 20
42.51389676591869
 30
0.0
  0
VERTEX
  5
218
330
215
100
AcDbEntity
  8
Cut
 62
   179
420
  1842203
370
     9
100
AcDbVertex
100
AcDb2dVertex
 10
123.1998790501357
 20
45.30596468722269
 30
0.0
  0
VERTEX
  5
219
330
215
100
AcDbEntity
  8
Cut
 62
   179
420
  1842203
370
     9
100
AcDbVertex
100
AcDb2dVertex
 10
122.6411992036185
 20
49.41953395643258
 30
0.0
  0
VERTEX
  5
21A
330
215
100
AcDbEntity
  8
Cut
 62
   179
420
  1842203
370
     9
100
AcDbVertex
100
AcDb2dVertex
 10
126.2460075354823
 20
47.36095205389342
 30
0.0
  0
VERTEX
  5
21B
330
215
100
AcDbEntity
  8
Cut
 62
   179
420
  1842203
370
     9
100
AcDbVertex
100
AcDb2dVertex
 10
129.9853492972122
 20
49.16346289056837
 30
0.0
  0
VERTEX
  5
21C
330
215
100
AcDbEntity
  8
Cut
 62
   179
420
  1842203
370
     9
100
AcDbVertex
100
AcDb2dVertex
 10
129.1415446260127
 20
45.09903507486931
 30
0.0
  0
VERTEX
  5
21D
330
215
100
AcDbEntity
  8
Cut
 62
   179
420
  1842203
370
     9
100
AcDbVertex
100
AcDb2dVertex
 10
132.0114127124138
 20
42.09954085814382
 30
0.0
  0
VERTEX
  5
21E
330
215
100
AcDbEntity
  8
Cut
 62
   179
420
  1842203
370
     9
100
AcDbVertex
100
AcDb2dVertex
 10
127.8849945191144
 20
41.64605382344934
 30
0.0
  0
VERTEX
  5
21F
330
215
100
AcDbEntity
  8
Cut
 62
   179
420
  1842203
370
     9
100
AcDbVertex
100
AcDb2dVertex
 10
126.1737425695397
 20
38.46306227257521
 30
0.0
  0
VERTEX
  5
220
330
215
100
AcDbEntity
  8
Cut
 62
   179
420
  1842203
370
     9
100
AcDbVertex
100
AcDb2dVertex
 10
125.5677390773707
 20
38.7696933674133
 30
0.0
  0
VERTEX
  5
221
330
215
100
AcDbEntity
  8
Cut
 62
   179
420
  1842203
370
     9
100
AcDbVertex
100
AcDb2dVertex
 10
124.2130138722699
 20
41.77416632717312
 30
0.0
  0
SEQEND
  5
222
330
215
100
AcDbEntity
  8
Cut
 62
   179
420
  1842203
370
     9
  0
INSERT
  5
224
330
211
100
AcDbEntity
  8
Cut
100
AcDbBlockReference
  2
block 9
 10
0.0
 20
0.0
 30
0.0
  0
ENDBLK
  5
214
330
211
100
AcDbEntity
  8
0
100
AcDbBlockEnd
  0
BLOCK
  5
225
330
223
100
AcDbEntity
  8
0
100
AcDbBlockBegin
  2
block 9
 70
     0
 10
0.0
 20
0.0
 30
0.0
  3
block 9
  1

  0
POLYLINE
  5
227
330
223
100
AcDbEntity
  8
Cut
 62
   179
420
  1842203
370
     9
100
AcDb2dPolyline
 66
     1
 10
0.0
 20
0.0
 30
0.0
  0
VERTEX
  5
228
330
227
100
AcDbEntity
  8
Cut
 62
   179
420
  1842203
370
     9
100
AcDbVertex
100
AcDb2dVertex
 10
70.7720878685845
 20
71.64766494805062
 30
0.0
  0
VERTEX
  5
229
330
227
100
AcDbEntity
  8
Cut
 62
   179
420
  1842203
370
     9
100
AcDbVertex
100
AcDb2dVertex
 10
77.79085970520126
 20
74.77899271404156
 30
0.0
  0
VERTEX
  5
22A
330
227
100
AcDbEntity
  8
Cut
 62
   179
420
  1842203
370
     9
100
AcDbVertex
100
AcDb2dVertex
 10
71.03611527974638
 20
78.44525795716511
 30
0.0
  0
VERTEX
  5
22B
330
227
100
AcDbEntity
  8
Cut
 62
   179
420
  1842203
370
     9
100
AcDbVertex
100
AcDb2dVertex
 10
70.65787047677523
 20
82.01786457859814
 30
0.0
  0
VERTEX
  5
22C
330
227
100
AcDbEntity
  8
Cut
 62
   179
420
  1842203
370
     9
100
AcDbVertex
100
AcDb2dVertex
 10
81.6030842021163
 20
80.90468799132611
 30
0.0
  0
VERTEX
  5
22D
330
227
100
AcDbEntity
  8
Cut
 62
   179
420
  1842203
370
     9
100
AcDbVertex
100
AcDb2dVertex
 10
76.71807735285005
 20
79.05219736598512
 30
0.0
  0
VERTEX
  5
22E
330
227
100
AcDbEntity
  8
Cut
 62
   179
420
  1842203
370
     9
100
AcDbVertex
100
AcDb2dVertex
 10
81.14307743738418
 20
76.26679759160353
 30
0.0
  0
VERTEX
  5
22F
330
227
100
AcDbEntity
  8
Cut
 62
   179
420
  1842203
370
     9
100
AcDbVertex
100
AcDb2dVertex
 10
81.25223368523513
 20
70.88790529231296
 30
0.0
  0
VERTEX
  5
230
330
227
100
AcDbEntity
  8
Cut
 62
   179
420
  1842203
370
     9
100
AcDbVertex
100
AcDb2dVertex
 10
85.44281669221499
 20
74.37439826870235
 30
0.0
  0
VERTEX
  5
231
330
227
100
AcDbEntity
  8
Cut
 62
   179
420
  1842203
370
     9
100
AcDbVertex
100
AcDb2dVertex
 10
90.46753532109722
 20
73.00491737936724
 30
0.0
  0
VERTEX
  5
232
330
227
100
AcDbEntity
  8
Cut
 62
   179
420
  1842203
370
     9
100
AcDbVertex
100
AcDb2dVertex
 10
88.61778901527407
 20
77.87328307114625
 30
0.0
  0
VERTEX
  5
233
330
227
100
AcDbEntity
  8
Cut
 62
   179
420
  1842203
370
     9
100
AcDbVertex
100
AcDb2dVertex
 10
90.09141984804009
 20
80.04138675819749
 30
0.0
  0
VERTEX
  5
234
330
227
100
AcDbEntity
  8
Cut
 62
   179
420
  1842203
370
     9
100
AcDbVertex
100
AcDb2dVertex
 10
93.90816761643308
 20
79.65320664934671
 30
0.0
  0
VERTEX
  5
235
330
227
100
AcDbEntity
  8
Cut
 62
   179
420
  1842203
370
     9
100
AcDbVertex
100
AcDb2dVertex
 10
94.47031054325308
 20
70.02785047803813
 30
0.0
  0
VERTEX
  5
236
330
227
100
AcDbEntity
  8
Cut
 62
   179
420
  1842203
370
     9
100
AcDbVertex
100
AcDb2dVertex
 10
83.23758284887472
 20
61.29053490989667
 30
0.0
  0
VERTEX
  5
237
330
227
100
AcDbEntity
  8
Cut
 62
   179
420
  1842203
370
     9
100
AcDbVertex
100
AcDb2dVertex
 10
97.00520590342639
 20
57.68948150286882
 30
0.0
  0
VERTEX
  5
238
330
227
100
AcDbEntity
  8
Cut
 62
   179
420
  1842203
370
     9
100
AcDbVertex
100
AcDb2dVertex
 10
98.98202863094532
 20
52.22197142685876
 30
0.0
  0
VERTEX
  5
239
330
227
100
AcDbEntity
  8
Cut
 62
   179
420
  1842203
370
     9
100
AcDbVertex
100
AcDb2dVertex
 10
69.89978888911385
 20
66.93747515231195
 30
0.0
  0
VERTEX
  5
23A
330
227
100
AcDbEntity
  8
Cut
 62
   179
420
  1842203
370
     9
100
AcDbVertex
100
AcDb2dVertex
 10
70.7720878685845
 20
71.64766494805062
 30
0.0
  0
SEQEND
  5
23B
330
227
100
AcDbEntity
  8
Cut
 62
   179
420
  1842203
370
     9
  0
POLYLINE
  5
23C
330
223
100
AcDbEntity
  8
Cut
 62
   179
420
  1842203
370
     9
100
AcDb2dPolyline
 66
     1
 10
0.0
 20
0.0
 30
0.0
  0
VERTEX
  5
23D
330
23C
100
AcDbEntity
  8
Cut
 62
   179
420
  1842203
370
     9
100
AcDbVertex
100
AcDb2dVertex
 10
65.57421674237739
 20
77.53527171864222
 30
0.0
  0
VERTEX
  5
23E
330
23C
100
AcDbEntity
  8
Cut
 62
   179
420
  1842203
370
     9
100
AcDbVertex
100
AcDb2dVertex
 10
67.88353875477677
 20
79.72735402684059
 30
0.0
  0
VERTEX
  5
23F
330
23C
100
AcDbEntity
  8
Cut
 62
   179
420
  1842203
370
     9
100
AcDbVertex
100
AcDb2dVertex
 10
68.2189225034449
 20
76.56090738724214
 30
0.0
  0
VERTEX
  5
240
330
23C
100
AcDbEntity
  8
Cut
 62
   179
420
  1842203
370
     9
100
AcDbVertex
100
AcDb2dVertex
 10
71.0172266626671
 20
75.0419684376824
 30
0.0
  0
VERTEX
  5
241
330
23C
100
AcDbEntity
  8
Cut
 62
   179
420
  1842203
370
     9
100
AcDbVertex
100
AcDb2dVertex
 10
68.10946262285016
 20
73.74478192042203
 30
0.0
  0
VERTEX
  5
242
330
23C
100
AcDbEntity
  8
Cut
 62
   179
420
  1842203
370
     9
100
AcDbVertex
100
AcDb2dVertex
 10
67.52959535636981
 20
70.61393675481636
 30
0.0
  0
VERTEX
  5
243
330
23C
100
AcDbEntity
  8
Cut
 62
   179
420
  1842203
370
     9
100
AcDbVertex
100
AcDb2dVertex
 10
65.39715064322286
 20
72.9784861118386
 30
0.0
  0
VERTEX
  5
244
330
23C
100
AcDbEntity
  8
Cut
 62
   179
420
  1842203
370
     9
100
AcDbVertex
100
AcDb2dVertex
 10
62.24050914656021
 20
72.56245918854897
 30
0.0
  0
VERTEX
  5
245
330
23C
100
AcDbEntity
  8
Cut
 62
   179
420
  1842203
370
     9
100
AcDbVertex
100
AcDb2dVertex
 10
63.83039237464841
 20
75.32117019183721
 30
0.0
  0
VERTEX
  5
246
330
23C
100
AcDbEntity
  8
Cut
 62
   179
420
  1842203
370
     9
100
AcDbVertex
100
AcDb2dVertex
 10
62.45910359542617
 20
78.1949163512558
 30
0.0
  0
VERTEX
  5
247
330
23C
100
AcDbEntity
  8
Cut
 62
   179
420
  1842203
370
     9
100
AcDbVertex
100
AcDb2dVertex
 10
65.57421674237739
 20
77.53527171864222
 30
0.0
  0
SEQEND
  5
248
330
23C
100
AcDbEntity
  8
Cut
 62
   179
420
  1842203
370
     9
  0
POLYLINE
  5
249
330
223
100
AcDbEntity
  8
Cut
 62
   179
420
  1842203
370
     9
100
AcDb2dPolyline
 66
     1
 10
0.0
 20
0.0
 30
0.0
  0
VERTEX
  5
24A
330
249
100
AcDbEntity
  8
Cut
 62
   179
420
  1842203
370
     9
100
AcDbVertex
100
AcDb2dVertex
 10
107.8485635346089
 20
59.23437248021587
 30
0.0
  0
VERTEX
  5
24B
330
249
100
AcDbEntity
  8
Cut
 62
   179
420
  1842203
370
     9
100
AcDbVertex
100
AcDb2dVertex
 10
102.5982453960337
 20
51.04313939563571
 30
0.0
  0
VERTEX
  5
24C
330
249
100
AcDbEntity
  8
Cut
 62
   179
420
  1842203
370
     9
100
AcDbVertex
100
AcDb2dVertex
 10
99.29007999022912
 20
60.19276489433133
 30
0.0
  0
VERTEX
  5
24D
330
249
100
AcDbEntity
  8
Cut
 62
   179
420
  1842203
370
     9
100
AcDbVertex
100
AcDb2dVertex
 10
89.87750960446952
 20
62.6546807322291
 30
0.0
  0
VERTEX
  5
24E
330
249
100
AcDbEntity
  8
Cut
 62
   179
420
  1842203
370
     9
100
AcDbVertex
100
AcDb2dVertex
 10
97.55709405824909
 20
68.62830205484128
 30
0.0
  0
VERTEX
  5
24F
330
249
100
AcDbEntity
  8
Cut
 62
   179
420
  1842203
370
     9
100
AcDbVertex
100
AcDb2dVertex
 10
96.98993318301969
 20
78.3411514720669
 30
0.0
  0
VERTEX
  5
250
330
249
100
AcDbEntity
  8
Cut
 62
   179
420
  1842203
370
     9
100
AcDbVertex
100
AcDb2dVertex
 10
105.0442273427774
 20
72.88331026222077
 30
0.0
  0
VERTEX
  5
251
330
249
100
AcDbEntity
  8
Cut
 62
   179
420
  1842203
370
     9
100
AcDbVertex
100
AcDb2dVertex
 10
114.1063687303882
 20
76.42424756057684
 30
0.0
  0
VERTEX
  5
252
330
249
100
AcDbEntity
  8
Cut
 62
   179
420
  1842203
370
     9
100
AcDbVertex
100
AcDb2dVertex
 10
111.4045865239792
 20
67.07745390855224
 30
0.0
  0
VERTEX
  5
253
330
249
100
AcDbEntity
  8
Cut
 62
   179
420
  1842203
370
     9
100
AcDbVertex
100
AcDb2dVertex
 10
117.5724945359316
 20
59.55298443965261
 30
0.0
  0
VERTEX
  5
254
330
249
100
AcDbEntity
  8
Cut
 62
   179
420
  1842203
370
     9
100
AcDbVertex
100
AcDb2dVertex
 10
107.8485635346089
 20
59.23437248021587
 30
0.0
  0
SEQEND
  5
255
330
249
100
AcDbEntity
  8
Cut
 62
   179
420
  1842203
370
     9
  0
POLYLINE
  5
256
330
223
100
AcDbEntity
  8
Cut
 62
   179
420
  1842203
370
     9
100
AcDb2dPolyline
 66
     1
 10
0.0
 20
0.0
 30
0.0
  0
VERTEX
  5
257
330
256
100
AcDbEntity
  8
Cut
 62
   179
420
  1842203
370
     9
100
AcDbVertex
100
AcDb2dVertex
 10
109.9511039933
 20
78.02156914879404
 30
0.0
  0
VERTEX
  5
258
330
256
100
AcDbEntity
  8
Cut
 62
   179
420
  1842203
370
     9
100
AcDbVertex
100
AcDb2dVertex
 10
105.4214376753349
 20
76.2517151706145
 30
0.0
  0
VERTEX
  5
259
330
256
100
AcDbEntity
  8
Cut
 62
   179
420
  1842203
370
     9
100
AcDbVertex
100
AcDb2dVertex
 10
101.5483251908564
 20
78.87616887298684
 30
0.0
  0
VERTEX
  5
25A
330
256
100
AcDbEntity
  8
Cut
 62
   179
420
  1842203
370
     9
100
AcDbVertex
100
AcDb2dVertex
 10
109.9511039933
 20
78.02156914879404
 30
0.0
  0
SEQEND
  5
25B
330
256
100
AcDbEntity
  8
Cut
 62
   179
420
  1842203
370
     9
  0
POLYLINE
  5
25C
330
223
100
AcDbEntity
  8
Cut
 62
   179
420
  1842203
370
     9
100
AcDb2dPolyline
 66
     1
 10
0.0
 20
0.0
 30
0.0
  0
VERTEX
  5
25D
330
25C
100
AcDbEntity
  8
Cut
 62
   179
420
  1842203
370
     9
100
AcDbVertex
100
AcDb2dVertex
 10
128.8513857256195
 20
37.10817688311418
 30
0.0
  0
VERTEX
  5
25E
330
25C
100
AcDbEntity
  8
Cut
 62
   179
420
  1842203
370
     9
100
AcDbVertex
100
AcDb2dVertex
 10
129.7804987917027
 20
38.83638383460493
 30
0.0
  0
VERTEX
  5
25F
330
25C
100
AcDbEntity
  8
Cut
 62
   179
420
  1842203
370
     9
100
AcDbVertex
100
AcDb2dVertex
 10
138.3814276092181
 20
39.78154129650895
 30
0.0
  0
VERTEX
  5
260
330
25C
100
AcDbEntity
  8
Cut
 62
   179
420
  1842203
370
     9
100
AcDbVertex
100
AcDb2dVertex
 10
132.3995525318894
 20
46.03335928234917
 30
0.0
  0
VERTEX
  5
261
330
25C
100
AcDbEntity
  8
Cut
 62
   179
420
  1842203
370
     9
100
AcDbVertex
100
AcDb2dVertex
 10
134.1584263534447
 20
54.50540917378854
 30
0.0
  0
VERTEX
  5
262
330
25C
100
AcDbEntity
  8
Cut
 62
   179
420
  1842203
370
     9
100
AcDbVertex
100
AcDb2dVertex
 10
126.3640239043728
 20
50.74809982530873
 30
0.0
  0
VERTEX
  5
263
330
25C
100
AcDbEntity
  8
Cut
 62
   179
420
  1842203
370
     9
100
AcDbVertex
100
AcDb2dVertex
 10
118.8501906584408
 20
55.0388739341214
 30
0.0
  0
VERTEX
  5
264
330
25C
100
AcDbEntity
  8
Cut
 62
   179
420
  1842203
370
     9
100
AcDbVertex
100
AcDb2dVertex
 10
120.0148890308954
 20
46.46513583878332
 30
0.0
  0
VERTEX
  5
265
330
25C
100
AcDbEntity
  8
Cut
 62
   179
420
  1842203
370
     9
100
AcDbVertex
100
AcDb2dVertex
 10
116.5621685198522
 20
43.32648001504442
 30
0.0
  0
VERTEX
  5
266
330
25C
100
AcDbEntity
  8
Cut
 62
   179
420
  1842203
370
     9
100
AcDbVertex
100
AcDb2dVertex
 10
104.973906544389
 20
49.19010049954115
 30
0.0
  0
VERTEX
  5
267
330
25C
100
AcDbEntity
  8
Cut
 62
   179
420
  1842203
370
     9
100
AcDbVertex
100
AcDb2dVertex
 10
109.5230387114705
 20
56.28754394354863
 30
0.0
  0
VERTEX
  5
268
330
25C
100
AcDbEntity
  8
Cut
 62
   179
420
  1842203
370
     9
100
AcDbVertex
100
AcDb2dVertex
 10
123.7464043074084
 20
56.75385273493536
 30
0.0
  0
VERTEX
  5
269
330
25C
100
AcDbEntity
  8
Cut
 62
   179
420
  1842203
370
     9
100
AcDbVertex
100
AcDb2dVertex
 10
114.7245586163576
 20
67.75961250509013
 30
0.0
  0
VERTEX
  5
26A
330
25C
100
AcDbEntity
  8
Cut
 62
   179
420
  1842203
370
     9
100
AcDbVertex
100
AcDb2dVertex
 10
117.4699096602837
 20
77.25687339750354
 30
0.0
  0
VERTEX
  5
26B
330
25C
100
AcDbEntity
  8
Cut
 62
   179
420
  1842203
370
     9
100
AcDbVertex
100
AcDb2dVertex
 10
129.4962157183052
 20
76.03374494418168
 30
0.0
  0
VERTEX
  5
26C
330
25C
100
AcDbEntity
  8
Cut
 62
   179
420
  1842203
370
     9
100
AcDbVertex
100
AcDb2dVertex
 10
131.1524071189573
 20
71.95698105190206
 30
0.0
  0
VERTEX
  5
26D
330
25C
100
AcDbEntity
  8
Cut
 62
   179
420
  1842203
370
     9
100
AcDbVertex
100
AcDb2dVertex
 10
130.9753460404785
 20
71.87164399930101
 30
0.0
  0
VERTEX
  5
26E
330
25C
100
AcDbEntity
  8
Cut
 62
   179
420
  1842203
370
     9
100
AcDbVertex
100
AcDb2dVertex
 10
124.5911343702798
 20
75.51753876093547
 30
0.0
  0
VERTEX
  5
26F
330
25C
100
AcDbEntity
  8
Cut
 62
   179
420
  1842203
370
     9
100
AcDbVertex
100
AcDb2dVertex
 10
125.5807967443967
 20
68.23264804823695
 30
0.0
  0
VERTEX
  5
270
330
25C
100
AcDbEntity
  8
Cut
 62
   179
420
  1842203
370
     9
100
AcDbVertex
100
AcDb2dVertex
 10
120.1404733203307
 20
63.28726596232602
 30
0.0
  0
VERTEX
  5
271
330
25C
100
AcDbEntity
  8
Cut
 62
   179
420
  1842203
370
     9
100
AcDbVertex
100
AcDb2dVertex
 10
127.3748460796841
 20
61.97735489323907
 30
0.0
  0
VERTEX
  5
272
330
25C
100
AcDbEntity
  8
Cut
 62
   179
420
  1842203
370
     9
100
AcDbVertex
100
AcDb2dVertex
 10
130.3969264188333
 20
55.27529204318839
 30
0.0
  0
VERTEX
  5
273
330
25C
100
AcDbEntity
  8
Cut
 62
   179
420
  1842203
370
     9
100
AcDbVertex
100
AcDb2dVertex
 10
133.8782594939172
 20
61.75069201117036
 30
0.0
  0
VERTEX
  5
274
330
25C
100
AcDbEntity
  8
Cut
 62
   179
420
  1842203
370
     9
100
AcDbVertex
100
AcDb2dVertex
 10
135.2380019085701
 20
61.90012118894891
 30
0.0
  0
VERTEX
  5
275
330
25C
100
AcDbEntity
  8
Cut
 62
   179
420
  1842203
370
     9
100
AcDbVertex
100
AcDb2dVertex
 10
143.9305209422151
 20
40.50315305462696
 30
0.0
  0
VERTEX
  5
276
330
25C
100
AcDbEntity
  8
Cut
 62
   179
420
  1842203
370
     9
100
AcDbVertex
100
AcDb2dVertex
 10
143.4905945802968
 20
40.29108061171711
 30
0.0
  0
VERTEX
  5
277
330
25C
100
AcDbEntity
  8
Cut
 62
   179
420
  1842203
370
     9
100
AcDbVertex
100
AcDb2dVertex
 10
139.8164191649148
 20
42.38944154922141
 30
0.0
  0
VERTEX
  5
278
330
25C
100
AcDbEntity
  8
Cut
 62
   179
420
  1842203
370
     9
100
AcDbVertex
100
AcDb2dVertex
 10
140.3859178705399
 20
38.1966842962686
 30
0.0
  0
VERTEX
  5
279
330
25C
100
AcDbEntity
  8
Cut
 62
   179
420
  1842203
370
     9
100
AcDbVertex
100
AcDb2dVertex
 10
137.2553599897629
 20
35.35070770880084
 30
0.0
  0
VERTEX
  5
27A
330
25C
100
AcDbEntity
  8
Cut
 62
   179
420
  1842203
370
     9
100
AcDbVertex
100
AcDb2dVertex
 10
141.4184605350451
 20
34.59694445054272
 30
0.0
  0
VERTEX
  5
27B
330
25C
100
AcDbEntity
  8
Cut
 62
   179
420
  1842203
370
     9
100
AcDbVertex
100
AcDb2dVertex
 10
143.1577489228904
 20
30.73988889786618
 30
0.0
  0
VERTEX
  5
27C
330
25C
100
AcDbEntity
  8
Cut
 62
   179
420
  1842203
370
     9
100
AcDbVertex
100
AcDb2dVertex
 10
145.1611912030752
 20
34.46648437136255
 30
0.0
  0
VERTEX
  5
27D
330
25C
100
AcDbEntity
  8
Cut
 62
   179
420
  1842203
370
     9
100
AcDbVertex
100
AcDb2dVertex
 10
146.3306870253023
 20
34.59500663547247
 30
0.0
  0
VERTEX
  5
27E
330
25C
100
AcDbEntity
  8
Cut
 62
   179
420
  1842203
370
     9
100
AcDbVertex
100
AcDb2dVertex
 10
149.5683091837304
 20
26.6254937853889
 30
0.0
  0
VERTEX
  5
27F
330
25C
100
AcDbEntity
  8
Cut
 62
   179
420
  1842203
370
     9
100
AcDbVertex
100
AcDb2dVertex
 10
128.8513857256195
 20
37.10817688311418
 30
0.0
  0
SEQEND
  5
280
330
25C
100
AcDbEntity
  8
Cut
 62
   179
420
  1842203
370
     9
  0
POLYLINE
  5
281
330
223
100
AcDbEntity
  8
Cut
 62
   179
420
  1842203
370
     9
100
AcDb2dPolyline
 66
     1
 10
0.0
 20
0.0
 30
0.0
  0
VERTEX
  5
282
330
281
100
AcDbEntity
  8
Cut
 62
   179
420
  1842203
370
     9
100
AcDbVertex
100
AcDb2dVertex
 10
132.8454877130624
 20
66.93142723220436
 30
0.0
  0
VERTEX
  5
283
330
281
100
AcDbEntity
  8
Cut
 62
   179
420
  1842203
370
     9
100
AcDbVertex
100
AcDb2dVertex
 10
133.4512466902821
 20
66.29829426062949
 30
0.0
  0
VERTEX
  5
284
330
281
100
AcDbEntity
  8
Cut
 62
   179
420
  1842203
370
     9
100
AcDbVertex
100
AcDb2dVertex
 10
134.0643333380852
 20
64.78917631844182
 30
0.0
  0
VERTEX
  5
285
330
281
100
AcDbEntity
  8
Cut
 62
   179
420
  1842203
370
     9
100
AcDbVertex
100
AcDb2dVertex
 10
131.9827552213295
 20
64.56036200001476
 30
0.0
  0
VERTEX
  5
286
330
281
100
AcDbEntity
  8
Cut
 62
   179
420
  1842203
370
     9
100
AcDbVertex
100
AcDb2dVertex
 10
130.6329940149392
 20
62.04993032750252
 30
0.0
  0
VERTEX
  5
287
330
281
100
AcDbEntity
  8
Cut
 62
   179
420
  1842203
370
     9
100
AcDbVertex
100
AcDb2dVertex
 10
129.4613846077997
 20
64.64832803484947
 30
0.0
  0
VERTEX
  5
288
330
281
100
AcDbEntity
  8
Cut
 62
   179
420
  1842203
370
     9
100
AcDbVertex
100
AcDb2dVertex
 10
126.656523990408
 20
65.15625711877179
 30
0.0
  0
VERTEX
  5
289
330
281
100
AcDbEntity
  8
Cut
 62
   179
420
  1842203
370
     9
100
AcDbVertex
100
AcDb2dVertex
 10
128.7657867636377
 20
67.07347689667536
 30
0.0
  0
VERTEX
  5
28A
330
281
100
AcDbEntity
  8
Cut
 62
   179
420
  1842203
370
     9
100
AcDbVertex
100
AcDb2dVertex
 10
128.382108057132
 20
69.89785604175992
 30
0.0
  0
VERTEX
  5
28B
330
281
100
AcDbEntity
  8
Cut
 62
   179
420
  1842203
370
     9
100
AcDbVertex
100
AcDb2dVertex
 10
130.8573296715876
 20
68.4844962278857
 30
0.0
  0
VERTEX
  5
28C
330
281
100
AcDbEntity
  8
Cut
 62
   179
420
  1842203
370
     9
100
AcDbVertex
100
AcDb2dVertex
 10
132.2837720177483
 20
69.17206718600774
 30
0.0
  0
VERTEX
  5
28D
330
281
100
AcDbEntity
  8
Cut
 62
   179
420
  1842203
370
     9
100
AcDbVertex
100
AcDb2dVertex
 10
132.9633577512632
 20
67.49920988901543
 30
0.0
  0
VERTEX
  5
28E
330
281
100
AcDbEntity
  8
Cut
 62
   179
420
  1842203
370
     9
100
AcDbVertex
100
AcDb2dVertex
 10
132.8454877130624
 20
66.93142723220436
 30
0.0
  0
SEQEND
  5
28F
330
281
100
AcDbEntity
  8
Cut
 62
   179
420
  1842203
370
     9
  0
POLYLINE
  5
290
330
223
100
AcDbEntity
  8
Cut
 62
   179
420
  1842203
370
     9
100
AcDb2dPolyline
 66
     1
 10
0.0
 20
0.0
 30
0.0
  0
VERTEX
  5
291
330
290
100
AcDbEntity
  8
Cut
 62
   179
420
  1842203
370
     9
100
AcDbVertex
100
AcDb2dVertex
 10
48.51570171789222
 20
83.78231416693119
 30
0.0
  0
VERTEX
  5
292
330
290
100
AcDbEntity
  8
Cut
 62
   179
420
  1842203
370
     9
100
AcDbVertex
100
AcDb2dVertex
 10
45.97485940739745
 20
81.47249350931325
 30
0.0
  0
VERTEX
  5
293
330
290
100
AcDbEntity
  8
Cut
 62
   179
420
  1842203
370
     9
100
AcDbVertex
100
AcDb2dVertex
 10
49.35383772548259
 20
80.8604642704449
 30
0.0
  0
VERTEX
  5
294
330
290
100
AcDbEntity
  8
Cut
 62
   179
420
  1842203
370
     9
100
AcDbVertex
100
AcDb2dVertex
 10
50.76570995231442
 20
77.73032071114625
 30
0.0
  0
VERTEX
  5
295
330
290
100
AcDbEntity
  8
Cut
 62
   179
420
  1842203
370
     9
100
AcDbVertex
100
AcDb2dVertex
 10
52.39128149303023
 20
80.75481313257632
 30
0.0
  0
VERTEX
  5
296
330
290
100
AcDbEntity
  8
Cut
 62
   179
420
  1842203
370
     9
100
AcDbVertex
100
AcDb2dVertex
 10
55.80466236244312
 20
81.12966505466515
 30
0.0
  0
VERTEX
  5
297
330
290
100
AcDbEntity
  8
Cut
 62
   179
420
  1842203
370
     9
100
AcDbVertex
100
AcDb2dVertex
 10
53.4306031954149
 20
83.61089993960714
 30
0.0
  0
VERTEX
  5
298
330
290
100
AcDbEntity
  8
Cut
 62
   179
420
  1842203
370
     9
100
AcDbVertex
100
AcDb2dVertex
 10
53.46293712228128
 20
83.76666526081965
 30
0.0
  0
VERTEX
  5
299
330
290
100
AcDbEntity
  8
Cut
 62
   179
420
  1842203
370
     9
100
AcDbVertex
100
AcDb2dVertex
 10
66.39568730444778
 20
82.45134743577822
 30
0.0
  0
VERTEX
  5
29A
330
290
100
AcDbEntity
  8
Cut
 62
   179
420
  1842203
370
     9
100
AcDbVertex
100
AcDb2dVertex
 10
64.65271924492467
 20
80.7968231056885
 30
0.0
  0
VERTEX
  5
29B
330
290
100
AcDbEntity
  8
Cut
 62
   179
420
  1842203
370
     9
100
AcDbVertex
100
AcDb2dVertex
 10
57.13385310395653
 20
82.38915029599733
 30
0.0
  0
VERTEX
  5
29C
330
290
100
AcDbEntity
  8
Cut
 62
   179
420
  1842203
370
     9
100
AcDbVertex
100
AcDb2dVertex
 10
60.44357585338197
 20
75.45265805365779
 30
0.0
  0
VERTEX
  5
29D
330
290
100
AcDbEntity
  8
Cut
 62
   179
420
  1842203
370
     9
100
AcDbVertex
100
AcDb2dVertex
 10
58.77902234468858
 20
72.56454165957587
 30
0.0
  0
VERTEX
  5
29E
330
290
100
AcDbEntity
  8
Cut
 62
   179
420
  1842203
370
     9
100
AcDbVertex
100
AcDb2dVertex
 10
32.40834904959722
 20
85.90800987823067
 30
0.0
  0
VERTEX
  5
29F
330
290
100
AcDbEntity
  8
Cut
 62
   179
420
  1842203
370
     9
100
AcDbVertex
100
AcDb2dVertex
 10
48.44856491591887
 20
84.2766490656187
 30
0.0
  0
VERTEX
  5
2A0
330
290
100
AcDbEntity
  8
Cut
 62
   179
420
  1842203
370
     9
100
AcDbVertex
100
AcDb2dVertex
 10
48.51570171789222
 20
83.78231416693119
 30
0.0
  0
SEQEND
  5
2A1
330
290
100
AcDbEntity
  8
Cut
 62
   179
420
  1842203
370
     9
  0
ENDBLK
  5
226
330
223
100
AcDbEntity
  8
0
100
AcDbBlockEnd
  0
ENDSEC
  0
SECTION
  2
ENTITIES
  0
POLYLINE
  5
41
330
1F
100
AcDbEntity
  8
Cut
 62
   179
420
  1842203
370
     9
100
AcDb2dPolyline
 66
     1
 10
0.0
 20
0.0
 30
0.0
  0
VERTEX
  5
42
330
41
100
AcDbEntity
  8
Cut
 62
   179
420
  1842203
370
     9
100
AcDbVertex
100
AcDb2dVertex
 10
66.51348188010829
 20
-69.54179997753553
 30
0.0
  0
VERTEX
  5
43
330
41
100
AcDbEntity
  8
Cut
 62
   179
420
  1842203
370
     9
100
AcDbVertex
100
AcDb2dVertex
 10
66.5141924310518
 20
-69.54182150938232
 30
0.0
  0
VERTEX
  5
44
330
41
100
AcDbEntity
  8
Cut
 62
   179
420
  1842203
370
     9
100
AcDbVertex
100
AcDb2dVertex
 10
66.51399864443107
 20
-69.54130474505953
 30
0.0
  0
VERTEX
  5
45
330
41
100
AcDbEntity
  8
Cut
 62
   179
420
  1842203
370
     9
100
AcDbVertex
100
AcDb2dVertex
 10
75.91465222687877
 20
-60.56549603148317
 30
0.0
  0
VERTEX
  5
46
330
41
100
AcDbEntity
  8
Cut
 62
   179
420
  1842203
370
     9
100
AcDbVertex
100
AcDb2dVertex
 10
91.86770516749772
 20
-15.75739989875073
 30
0.0
  0
VERTEX
  5
47
330
41
100
AcDbEntity
  8
Cut
 62
   179
420
  1842203
370
     9
100
AcDbVertex
100
AcDb2dVertex
 10
90.93227561586525
 20
-2.5218167450504
 30
0.0
  0
VERTEX
  5
48
330
41
100
AcDbEntity
  8
Cut
 62
   179
420
  1842203
370
     9
100
AcDbVertex
100
AcDb2dVertex
 10
90.92706490894349
 20
-2.514840426692769
 30
0.0
  0
VERTEX
  5
49
330
41
100
AcDbEntity
  8
Cut
 62
   179
420
  1842203
370
     9
100
AcDbVertex
100
AcDb2dVertex
 10
90.93287850757517
 20
-2.521278448880508
 30
0.0
  0
VERTEX
  5
4A
330
41
100
AcDbEntity
  8
Cut
 62
   179
420
  1842203
370
     9
100
AcDbVertex
100
AcDb2dVertex
 10
103.6062220780827
 20
-4.680771958269341
 30
0.0
  0
VERTEX
  5
4B
330
41
100
AcDbEntity
  8
Cut
 62
   179
420
  1842203
370
     9
100
AcDbVertex
100
AcDb2dVertex
 10
149.8113905574714
 20
6.604025876908913
 30
0.0
  0
VERTEX
  5
4C
330
41
100
AcDbEntity
  8
Cut
 62
   179
420
  1842203
370
     9
100
AcDbVertex
100
AcDb2dVertex
 10
160.0989624407499
 20
14.91176598035498
 30
0.0
  0
VERTEX
  5
4D
330
41
100
AcDbEntity
  8
Cut
 62
   179
420
  1842203
370
     9
100
AcDbVertex
100
AcDb2dVertex
 10
160.0995007369195
 20
14.91150759819359
 30
0.0
  0
VERTEX
  5
4E
330
41
100
AcDbEntity
  8
Cut
 62
   179
420
  1842203
370
     9
100
AcDbVertex
100
AcDb2dVertex
 10
160.0995007369195
 20
14.91219661729064
 30
0.0
  0
VERTEX
  5
4F
330
41
100
AcDbEntity
  8
Cut
 62
   179
420
  1842203
370
     9
100
AcDbVertex
100
AcDb2dVertex
 10
160.1001036286294
 20
14.91269184976632
 30
0.0
  0
VERTEX
  5
50
330
41
100
AcDbEntity
  8
Cut
 62
   179
420
  1842203
370
     9
100
AcDbVertex
100
AcDb2dVertex
 10
160.0995007369195
 20
14.9129932956216
 30
0.0
  0
VERTEX
  5
51
330
41
100
AcDbEntity
  8
Cut
 62
   179
420
  1842203
370
     9
100
AcDbVertex
100
AcDb2dVertex
 10
160.0995007369195
 20
30.47459726172903
 30
0.0
  0
VERTEX
  5
52
330
41
100
AcDbEntity
  8
Cut
 62
   179
420
  1842203
370
     9
100
AcDbVertex
100
AcDb2dVertex
 10
141.9234138070563
 20
74.4279221408771
 30
0.0
  0
VERTEX
  5
53
330
41
100
AcDbEntity
  8
Cut
 62
   179
420
  1842203
370
     9
100
AcDbVertex
100
AcDb2dVertex
 10
133.3273407433416
 20
81.02730398872845
 30
0.0
  0
VERTEX
  5
54
330
41
100
AcDbEntity
  8
Cut
 62
   179
420
  1842203
370
     9
100
AcDbVertex
100
AcDb2dVertex
 10
131.0815260602008
 20
86.46609776313915
 30
0.0
  0
VERTEX
  5
55
330
41
100
AcDbEntity
  8
Cut
 62
   179
420
  1842203
370
     9
100
AcDbVertex
100
AcDb2dVertex
 10
20.46730326777885
 20
98.22573300605053
 30
0.0
  0
VERTEX
  5
56
330
41
100
AcDbEntity
  8
Cut
 62
   179
420
  1842203
370
     9
100
AcDbVertex
100
AcDb2dVertex
 10
3.484555639897314
 20
94.38223816914622
 30
0.0
  0
VERTEX
  5
57
330
41
100
AcDbEntity
  8
Cut
 62
   179
420
  1842203
370
     9
100
AcDbVertex
100
AcDb2dVertex
 10
3.484555639897314
 20
-36.14553957599962
 30
0.0
  0
VERTEX
  5
58
330
41
100
AcDbEntity
  8
Cut
 62
   179
420
  1842203
370
     9
100
AcDbVertex
100
AcDb2dVertex
 10
10.89301816245926
 20
-46.37590134237649
 30
0.0
  0
VERTEX
  5
59
330
41
100
AcDbEntity
  8
Cut
 62
   179
420
  1842203
370
     9
100
AcDbVertex
100
AcDb2dVertex
 10
52.75598829223875
 20
-68.95367911450982
 30
0.0
  0
VERTEX
  5
5A
330
41
100
AcDbEntity
  8
Cut
 62
   179
420
  1842203
370
     9
100
AcDbVertex
100
AcDb2dVertex
 10
66.51272826547057
 20
-69.54175691384197
 30
0.0
  0
VERTEX
  5
5B
330
41
100
AcDbEntity
  8
Cut
 62
   179
420
  1842203
370
     9
100
AcDbVertex
100
AcDb2dVertex
 10
66.5129651157855
 20
-69.54229521001155
 30
0.0
  0
VERTEX
  5
5C
330
41
100
AcDbEntity
  8
Cut
 62
   179
420
  1842203
370
     9
100
AcDbVertex
100
AcDb2dVertex
 10
66.51348188010829
 20
-69.54179997753553
 30
0.0
  0
SEQEND
  5
5D
330
41
100
AcDbEntity
  8
Cut
 62
   179
420
  1842203
370
     9
  0
INSERT
  5
5F
330
1F
100
AcDbEntity
  8
Cut
100
AcDbBlockReference
  2
block 2
 10
0.0
 20
0.0
 30
0.0
  0
INSERT
  5
F0
330
1F
100
AcDbEntity
  8
Cut
100
AcDbBlockReference
  2
block 4
 10
0.0
 20
0.0
 30
0.0
  0
INSERT
  5
181
330
1F
100
AcDbEntity
  8
Cut
100
AcDbBlockReference
  2
block 6
 10
0.0
 20
0.0
 30
0.0
  0
INSERT
  5
212
330
1F
100
AcDbEntity
  8
Cut
100
AcDbBlockReference
  2
block 8
 10
0.0
 20
0.0
 30
0.0
  0
POLYLINE
  5
2A3
330
1F
100
AcDbEntity
  8
Ritzen
 62
    12
420
 14877971
370
     9
100
AcDb2dPolyline
 66
     1
 10
0.0
 20
0.0
 30
0.0
  0
VERTEX
  5
2A4
330
2A3
100
AcDbEntity
  8
Ritzen
 62
    12
420
 14877971
370
     9
100
AcDbVertex
100
AcDb2dVertex
 10
3.484555639897314
 20
94.38224534642934
 30
0.0
  0
VERTEX
  5
2A5
330
2A3
100
AcDbEntity
  8
Ritzen
 62
    12
420
 14877971
370
     9
100
AcDbVertex
100
AcDb2dVertex
 10
133.3273407433416
 20
81.02730398872845
 30
0.0
  0
VERTEX
  5
2A6
330
2A3
100
AcDbEntity
  8
Ritzen
 62
    12
420
 14877971
370
     9
100
AcDbVertex
100
AcDb2dVertex
 10
160.0989624407499
 20
14.91176598035498
 30
0.0
  0
VERTEX
  5
2A7
330
2A3
100
AcDbEntity
  8
Ritzen
 62
    12
420
 14877971
370
     9
100
AcDbVertex
100
AcDb2dVertex
 10
3.484555639897314
 20
94.38224534642934
 30
0.0
  0
SEQEND
  5
2A8
330
2A3
100
AcDbEntity
  8
Ritzen
 62
    12
420
 14877971
370
     9
  0
POLYLINE
  5
2A9
330
1F
100
AcDbEntity
  8
Ritzen
 62
    12
420
 14877971
370
     9
100
AcDb2dPolyline
 66
     1
 10
0.0
 20
0.0
 30
0.0
  0
VERTEX
  5
2AA
330
2A9
100
AcDbEntity
  8
Ritzen
 62
    12
420
 14877971
370
     9
100
AcDbVertex
100
AcDb2dVertex
 10
3.484555639897314
 20
-36.14553957599962
 30
0.0
  0
VERTEX
  5
2AB
330
2A9
100
AcDbEntity
  8
Ritzen
 62
    12
420
 14877971
370
     9
100
AcDbVertex
100
AcDb2dVertex
 10
66.51399864443107
 20
-69.54130474505953
 30
0.0
  0
VERTEX
  5
2AC
330
2A9
100
AcDbEntity
  8
Ritzen
 62
    12
420
 14877971
370
     9
100
AcDbVertex
100
AcDb2dVertex
 10
3.484555639897314
 20
94.38224534642934
 30
0.0
  0
VERTEX
  5
2AD
330
2A9
100
AcDbEntity
  8
Ritzen
 62
    12
420
 14877971
370
     9
100
AcDbVertex
100
AcDb2dVertex
 10
90.92706490894349
 20
-2.514840426692769
 30
0.0
  0
VERTEX
  5
2AE
330
2A9
100
AcDbEntity
  8
Ritzen
 62
    12
420
 14877971
370
     9
100
AcDbVertex
100
AcDb2dVertex
 10
160.0989624407499
 20
14.91176598035498
 30
0.0
  0
SEQEND
  5
2AF
330
2A9
100
AcDbEntity
  8
Ritzen
 62
    12
420
 14877971
370
     9
  0
POLYLINE
  5
2B0
330
1F
100
AcDbEntity
  8
Ritzen
 62
    12
420
 14877971
370
     9
100
AcDb2dPolyline
 66
     1
 10
0.0
 20
0.0
 30
0.0
  0
VERTEX
  5
2B1
330
2B0
100
AcDbEntity
  8
Ritzen
 62
    12
420
 14877971
370
     9
100
AcDbVertex
100
AcDb2dVertex
 10
90.92706490894349
 20
-2.514840426692769
 30
0.0
  0
VERTEX
  5
2B2
330
2B0
100
AcDbEntity
  8
Ritzen
 62
    12
420
 14877971
370
     9
100
AcDbVertex
100
AcDb2dVertex
 10
66.51399864443107
 20
-69.54130474505953
 30
0.0
  0
SEQEND
  5
2B3
330
2B0
100
AcDbEntity
  8
Ritzen
 62
    12
420
 14877971
370
     9
  0
ENDSEC
  0
SECTION
  2
OBJECTS
  0
DICTIONARY
  5
C
330
0
100
AcDbDictionary
281
     1
  3
ACAD_GROUP
350
D
  3
ACAD_LAYOUT
350
1A
  3
ACAD_MATERIAL
350
3B
  3
ACAD_MLEADERSTYLE
350
2B5
  3
ACAD_MLINESTYLE
350
17
  3
ACAD_PLOTSETTINGS
350
19
  3
ACAD_PLOTSTYLENAME
350
E
  3
ACAD_TABLESTYLE
350
2B4
  3
ACAD_VISUALSTYLE
350
2A
  0
SUN
  5
3F
330
29
100
AcDbSun
 90
        1
290
     0
 63
     7
421
 16777215
 40
1.0
291
     1
 91
  2455826
 92
 54000000
292
     0
 70
     2
 71
   256
280
     1
  0
DICTIONARY
  5
D
102
{ACAD_REACTORS
330
C
102
}
330
C
100
AcDbDictionary
281
     1
  0
DICTIONARY
  5
1A
102
{ACAD_REACTORS
330
C
102
}
330
C
100
AcDbDictionary
281
     1
  3
Layout1
350
1E
  3
Layout2
350
26
  3
Model
350
22
  0
DICTIONARY
  5
3B
102
{ACAD_REACTORS
330
C
102
}
330
C
100
AcDbDictionary
281
     1
  3
ByBlock
350
3D
  3
ByLayer
350
3C
  3
Global
350
3E
  0
DICTIONARY
  5
2B5
102
{ACAD_REACTORS
330
C
102
}
330
C
100
AcDbDictionary
281
     1
  0
DICTIONARY
  5
17
102
{ACAD_REACTORS
330
C
102
}
330
C
100
AcDbDictionary
281
     1
  3
Standard
350
18
  0
DICTIONARY
  5
19
102
{ACAD_REACTORS
330
C
102
}
330
C
100
AcDbDictionary
281
     1
  0
ACDBDICTIONARYWDFLT
  5
E
102
{ACAD_REACTORS
330
C
102
}
330
C
100
AcDbDictionary
281
     1
  3
Normal
350
F
100
AcDbDictionaryWithDefault
340
F
  0
DICTIONARY
  5
2B4
102
{ACAD_REACTORS
330
C
102
}
330
C
100
AcDbDictionary
281
     1
  0
DICTIONARY
  5
2A
102
{ACAD_REACTORS
330
C
102
}
330
C
100
AcDbDictionary
281
     1
  3
2dWireframe
350
2F
  3
3D Hidden
350
31
  3
3dWireframe
350
30
  3
Basic
350
32
  3
Brighten
350
36
  3
ColorChange
350
3A
  3
Conceptual
350
34
  3
Dim
350
35
  3
Facepattern
350
39
  3
Flat
350
2B
  3
FlatWithEdges
350
2C
  3
Gouraud
350
2D
  3
GouraudWithEdges
350
2E
  3
Linepattern
350
38
  3
Realistic
350
33
  3
Thicken
350
37
  0
LAYOUT
  5
1E
102
{ACAD_REACTORS
330
1A
102
}
330
1A
100
AcDbPlotSettings
  1

  2
none_device
  4

  6

 40
0.0
 41
0.0
 42
0.0
 43
0.0
 44
0.0
 45
0.0
 46
0.0
 47
0.0
 48
0.0
 49
0.0
140
0.0
141
0.0
142
1.0
143
1.0
 70
   688
 72
     0
 73
     0
 74
     5
  7

 75
    16
 76
     0
 77
     2
 78
   300
147
1.0
148
0.0
149
0.0
100
AcDbLayout
  1
Layout1
 70
     1
 71
     1
 10
0.0
 20
0.0
 11
12.0
 21
9.0
 12
0.0
 22
0.0
 32
0.0
 14
1.000000000000000E+20
 24
1.000000000000000E+20
 34
1.000000000000000E+20
 15
-1.000000000000000E+20
 25
-1.000000000000000E+20
 35
-1.000000000000000E+20
146
0.0
 13
0.0
 23
0.0
 33
0.0
 16
1.0
 26
0.0
 36
0.0
 17
0.0
 27
1.0
 37
0.0
 76
     0
330
1B
  0
LAYOUT
  5
26
102
{ACAD_REACTORS
330
1A
102
}
330
1A
100
AcDbPlotSettings
  1

  2
none_device
  4

  6

 40
0.0
 41
0.0
 42
0.0
 43
0.0
 44
0.0
 45
0.0
 46
0.0
 47
0.0
 48
0.0
 49
0.0
140
0.0
141
0.0
142
1.0
143
1.0
 70
   688
 72
     0
 73
     0
 74
     5
  7

 75
    16
 76
     0
 77
     2
 78
   300
147
1.0
148
0.0
149
0.0
100
AcDbLayout
  1
Layout2
 70
     1
 71
     2
 10
0.0
 20
0.0
 11
0.0
 21
0.0
 12
0.0
 22
0.0
 32
0.0
 14
0.0
 24
0.0
 34
0.0
 15
0.0
 25
0.0
 35
0.0
146
0.0
 13
0.0
 23
0.0
 33
0.0
 16
1.0
 26
0.0
 36
0.0
 17
0.0
 27
1.0
 37
0.0
 76
     0
330
23
  0
LAYOUT
  5
22
102
{ACAD_REACTORS
330
1A
102
}
330
1A
100
AcDbPlotSettings
  1

  2
none_device
  4

  6

 40
0.0
 41
0.0
 42
0.0
 43
0.0
 44
0.0
 45
0.0
 46
0.0
 47
0.0
 48
0.0
 49
0.0
140
0.0
141
0.0
142
1.0
143
1.0
 70
  1712
 72
     0
 73
     0
 74
     0
  7

 75
     0
 76
     0
 77
     2
 78
   300
147
1.0
148
0.0
149
0.0
100
AcDbLayout
  1
Model
 70
     1
 71
     0
 10
0.0
 20
0.0
 11
12.0
 21
9.0
 12
0.0
 22
0.0
 32
0.0
 14
1.000000000000000E+20
 24
1.000000000000000E+20
 34
1.000000000000000E+20
 15
-1.000000000000000E+20
 25
-1.000000000000000E+20
 35
-1.000000000000000E+20
146
0.0
 13
0.0
 23
0.0
 33
0.0
 16
1.0
 26
0.0
 36
0.0
 17
0.0
 27
1.0
 37
0.0
 76
     0
330
1F
331
29
  0
MATERIAL
  5
3D
102
{ACAD_REACTORS
330
3B
102
}
330
3B
100
AcDbMaterial
  1
ByBlock
 72
     1
 94
      127
  0
MATERIAL
  5
3C
102
{ACAD_REACTORS
330
3B
102
}
330
3B
100
AcDbMaterial
  1
ByLayer
 72
     1
 94
      127
  0
MATERIAL
  5
3E
102
{ACAD_REACTORS
330
3B
102
}
330
3B
100
AcDbMaterial
  1
Global
 72
     1
 94
      127
  0
MLINESTYLE
  5
18
102
{ACAD_REACTORS
330
17
102
}
330
17
100
AcDbMlineStyle
  2
Standard
 70
     0
  3

 62
   256
 51
90.0
 52
90.0
 71
     2
 49
0.5
 62
   256
  6
BYLAYER
 49
-0.5
 62
   256
  6
BYLAYER
  0
ACDBPLACEHOLDER
  5
F
102
{ACAD_REACTORS
330
E
102
}
330
E
  0
VISUALSTYLE
  5
2F
102
{ACAD_REACTORS
330
2A
102
}
330
2A
100
AcDbVisualStyle
  2
2dWireframe
 70
     4
177
     2
291
     0
 71
     0
176
     1
 72
     2
176
     1
 73
     0
176
     1
 90
        0
176
     1
 40
-0.6
176
     1
 41
-30.0
176
     1
 62
     5
 63
     7
421
 16777215
176
     1
 74
     1
176
     1
 91
        4
176
     1
 64
     7
176
     1
 65
   257
176
     1
 75
     1
176
     1
175
     1
176
     1
 42
1.0
176
     1
 92
        0
176
     1
 66
   257
176
     1
 43
1.0
176
     1
 76
     1
176
     1
 77
     6
176
     1
 78
     2
176
     1
 67
     7
176
     1
 79
     5
176
     1
170
     0
176
     1
171
     0
176
     1
290
     0
176
     1
 93
        1
176
     1
 44
0.0
176
     1
173
     0
176
     1
  0
VISUALSTYLE
  5
31
102
{ACAD_REACTORS
330
2A
102
}
330
2A
100
AcDbVisualStyle
  2
3D Hidden
 70
     6
177
     2
291
     0
 71
     1
176
     1
 72
     2
176
     1
 73
     2
176
     1
 90
        0
176
     1
 40
-0.6
176
     1
 41
-30.0
176
     1
 62
     5
 63
     7
421
 16777215
176
     1
 74
     2
176
     1
 91
        2
176
     1
 64
     7
176
     1
 65
   257
176
     1
 75
     2
176
     1
175
     1
176
     1
 42
40.0
176
     1
 92
        0
176
     1
 66
   257
176
     1
 43
1.0
176
     1
 76
     1
176
     1
 77
     6
176
     1
 78
     2
176
     1
 67
     7
176
     1
 79
     3
176
     1
170
     0
176
     1
171
     0
176
     1
290
     0
176
     1
 93
        1
176
     1
 44
0.0
176
     1
173
     0
176
     1
  0
VISUALSTYLE
  5
30
102
{ACAD_REACTORS
330
2A
102
}
330
2A
100
AcDbVisualStyle
  2
3dWireframe
 70
     5
177
     2
291
     0
 71
     0
176
     1
 72
     2
176
     1
 73
     0
176
     1
 90
        0
176
     1
 40
-0.6
176
     1
 41
-30.0
176
     1
 62
     5
 63
     7
421
 16777215
176
     1
 74
     1
176
     1
 91
        4
176
     1
 64
     7
176
     1
 65
   257
176
     1
 75
     1
176
     1
175
     1
176
     1
 42
1.0
176
     1
 92
        0
176
     1
 66
   257
176
     1
 43
1.0
176
     1
 76
     1
176
     1
 77
     6
176
     1
 78
     2
176
     1
 67
     7
176
     1
 79
     5
176
     1
170
     0
176
     1
171
     0
176
     1
290
     0
176
     1
 93
        1
176
     1
 44
0.0
176
     1
173
     0
176
     1
  0
VISUALSTYLE
  5
32
102
{ACAD_REACTORS
330
2A
102
}
330
2A
100
AcDbVisualStyle
  2
Basic
 70
     7
177
     2
291
     1
 71
     1
176
     1
 72
     0
176
     1
 73
     1
176
     1
 90
        0
176
     1
 40
-0.6
176
     1
 41
-30.0
176
     1
 62
     5
 63
     7
421
 16777215
176
     1
 74
     0
176
     1
 91
        4
176
     1
 64
     7
176
     1
 65
   257
176
     1
 75
     1
176
     1
175
     1
176
     1
 42
1.0
176
     1
 92
        8
176
     1
 66
     7
176
     1
 43
1.0
176
     1
 76
     1
176
     1
 77
     6
176
     1
 78
     2
176
     1
 67
     7
176
     1
 79
     5
176
     1
170
     0
176
     1
171
     0
176
     1
290
     0
176
     1
 93
        1
176
     1
 44
0.0
176
     1
173
     0
176
     1
  0
VISUALSTYLE
  5
36
102
{ACAD_REACTORS
330
2A
102
}
330
2A
100
AcDbVisualStyle
  2
Brighten
 70
    12
177
     2
291
     1
 71
     2
176
     1
 72
     2
176
     1
 73
     0
176
     1
 90
        0
176
     1
 40
-0.6
176
     1
 41
-30.0
176
     1
 62
     5
 63
     7
421
 16777215
176
     1
 74
     1
176
     1
 91
        4
176
     1
 64
     7
176
     1
 65
   257
176
     1
 75
     1
176
     1
175
     1
176
     1
 42
1.0
176
     1
 92
        8
176
     1
 66
     7
176
     1
 43
1.0
176
     1
 76
     1
176
     1
 77
     6
176
     1
 78
     2
176
     1
 67
     7
176
     1
 79
     5
176
     1
170
     0
176
     1
171
     0
176
     1
290
     0
176
     1
 93
        1
176
     1
 44
50.0
176
     1
173
     0
176
     1
  0
VISUALSTYLE
  5
3A
102
{ACAD_REACTORS
330
2A
102
}
330
2A
100
AcDbVisualStyle
  2
ColorChange
 70
    16
177
     2
291
     1
 71
     2
176
     1
 72
     2
176
     1
 73
     3
176
     1
 90
        0
176
     1
 40
-0.6
176
     1
 41
-30.0
176
     1
 62
     5
 63
     8
421
  8421504
176
     1
 74
     1
176
     1
 91
        4
176
     1
 64
     7
176
     1
 65
   257
176
     1
 75
     1
176
     1
175
     1
176
     1
 42
1.0
176
     1
 92
        8
176
     1
 66
     8
424
  8421504
176
     1
 43
1.0
176
     1
 76
     1
176
     1
 77
     6
176
     1
 78
     2
176
     1
 67
     7
176
     1
 79
     5
176
     1
170
     0
176
     1
171
     0
176
     1
290
     0
176
     1
 93
        1
176
     1
 44
0.0
176
     1
173
     0
176
     1
  0
VISUALSTYLE
  5
34
102
{ACAD_REACTORS
330
2A
102
}
330
2A
100
AcDbVisualStyle
  2
Conceptual
 70
     9
177
     2
291
     0
 71
     3
176
     1
 72
     2
176
     1
 73
     0
176
     1
 90
        0
176
     1
 40
-0.6
176
     1
 41
-30.0
176
     1
 62
     5
 63
     7
421
 16777215
176
     1
 74
     2
176
     1
 91
        2
176
     1
 64
     7
176
     1
 65
   257
176
     1
 75
     1
176
     1
175
     1
176
     1
 42
40.0
176
     1
 92
        8
176
     1
 66
     7
176
     1
 43
1.0
176
     1
 76
     1
176
     1
 77
     6
176
     1
 78
     2
176
     1
 67
     7
176
     1
 79
     3
176
     1
170
     0
176
     1
171
     0
176
     1
290
     0
176
     1
 93
        1
176
     1
 44
0.0
176
     1
173
     0
176
     1
  0
VISUALSTYLE
  5
35
102
{ACAD_REACTORS
330
2A
102
}
330
2A
100
AcDbVisualStyle
  2
Dim
 70
    11
177
     2
291
     1
 71
     2
176
     1
 72
     2
176
     1
 73
     0
176
     1
 90
        0
176
     1
 40
-0.6
176
     1
 41
-30.0
176
     1
 62
     5
 63
     7
421
 16777215
176
     1
 74
     1
176
     1
 91
        4
176
     1
 64
     7
176
     1
 65
   257
176
     1
 75
     1
176
     1
175
     1
176
     1
 42
1.0
176
     1
 92
        8
176
     1
 66
     7
176
     1
 43
1.0
176
     1
 76
     1
176
     1
 77
     6
176
     1
 78
     2
176
     1
 67
     7
176
     1
 79
     5
176
     1
170
     0
176
     1
171
     0
176
     1
290
     0
176
     1
 93
        1
176
     1
 44
-50.0
176
     1
173
     0
176
     1
  0
VISUALSTYLE
  5
39
102
{ACAD_REACTORS
330
2A
102
}
330
2A
100
AcDbVisualStyle
  2
Facepattern
 70
    15
177
     2
291
     1
 71
     2
176
     1
 72
     2
176
     1
 73
     0
176
     1
 90
        0
176
     1
 40
-0.6
176
     1
 41
-30.0
176
     1
 62
     5
 63
     7
421
 16777215
176
     1
 74
     1
176
     1
 91
        4
176
     1
 64
     7
176
     1
 65
   257
176
     1
 75
     1
176
     1
175
     1
176
     1
 42
1.0
176
     1
 92
        8
176
     1
 66
     7
176
     1
 43
1.0
176
     1
 76
     1
176
     1
 77
     6
176
     1
 78
     2
176
     1
 67
     7
176
     1
 79
     5
176
     1
170
     0
176
     1
171
     0
176
     1
290
     0
176
     1
 93
        1
176
     1
 44
0.0
176
     1
173
     0
176
     1
  0
VISUALSTYLE
  5
2B
102
{ACAD_REACTORS
330
2A
102
}
330
2A
100
AcDbVisualStyle
  2
Flat
 70
     0
177
     2
291
     1
 71
     2
176
     1
 72
     1
176
     1
 73
     1
176
     1
 90
        2
176
     1
 40
-0.6
176
     1
 41
30.0
176
     1
 62
     5
 63
     7
421
 16777215
176
     1
 74
     0
176
     1
 91
        4
176
     1
 64
     7
176
     1
 65
   257
176
     1
 75
     1
176
     1
175
     1
176
     1
 42
1.0
176
     1
 92
        8
176
     1
 66
     7
176
     1
 43
1.0
176
     1
 76
     1
176
     1
 77
     6
176
     1
 78
     2
176
     1
 67
     7
176
     1
 79
     5
176
     1
170
     0
176
     1
171
     0
176
     1
290
     0
176
     1
 93
       13
176
     1
 44
0.0
176
     1
173
     0
176
     1
  0
VISUALSTYLE
  5
2C
102
{ACAD_REACTORS
330
2A
102
}
330
2A
100
AcDbVisualStyle
  2
FlatWithEdges
 70
     1
177
     2
291
     1
 71
     2
176
     1
 72
     1
176
     1
 73
     1
176
     1
 90
        2
176
     1
 40
-0.6
176
     1
 41
30.0
176
     1
 62
     5
 63
     7
421
 16777215
176
     1
 74
     1
176
     1
 91
        4
176
     1
 64
     7
176
     1
 65
   257
176
     1
 75
     1
176
     1
175
     1
176
     1
 42
1.0
176
     1
 92
        0
176
     1
 66
   257
176
     1
 43
1.0
176
     1
 76
     1
176
     1
 77
     6
176
     1
 78
     2
176
     1
 67
     7
176
     1
 79
     5
176
     1
170
     0
176
     1
171
     0
176
     1
290
     0
176
     1
 93
       13
176
     1
 44
0.0
176
     1
173
     0
176
     1
  0
VISUALSTYLE
  5
2D
102
{ACAD_REACTORS
330
2A
102
}
330
2A
100
AcDbVisualStyle
  2
Gouraud
 70
     2
177
     2
291
     1
 71
     2
176
     1
 72
     2
176
     1
 73
     1
176
     1
 90
        2
176
     1
 40
-0.6
176
     1
 41
30.0
176
     1
 62
     5
 63
     7
421
 16777215
176
     1
 74
     0
176
     1
 91
        4
176
     1
 64
     7
176
     1
 65
   257
176
     1
 75
     1
176
     1
175
     1
176
     1
 42
1.0
176
     1
 92
        0
176
     1
 66
     7
176
     1
 43
1.0
176
     1
 76
     1
176
     1
 77
     6
176
     1
 78
     2
176
     1
 67
     7
176
     1
 79
     5
176
     1
170
     0
176
     1
171
     0
176
     1
290
     0
176
     1
 93
       13
176
     1
 44
0.0
176
     1
173
     0
176
     1
  0
VISUALSTYLE
  5
2E
102
{ACAD_REACTORS
330
2A
102
}
330
2A
100
AcDbVisualStyle
  2
GouraudWithEdges
 70
     3
177
     2
291
     1
 71
     2
176
     1
 72
     2
176
     1
 73
     1
176
     1
 90
        2
176
     1
 40
-0.6
176
     1
 41
30.0
176
     1
 62
     5
 63
     7
421
 16777215
176
     1
 74
     1
176
     1
 91
        4
176
     1
 64
     7
176
     1
 65
   257
176
     1
 75
     1
176
     1
175
     1
176
     1
 42
1.0
176
     1
 92
        0
176
     1
 66
   257
176
     1
 43
1.0
176
     1
 76
     1
176
     1
 77
     6
176
     1
 78
     2
176
     1
 67
     7
176
     1
 79
     5
176
     1
170
     0
176
     1
171
     0
176
     1
290
     0
176
     1
 93
       13
176
     1
 44
0.0
176
     1
173
     0
176
     1
  0
VISUALSTYLE
  5
38
102
{ACAD_REACTORS
330
2A
102
}
330
2A
100
AcDbVisualStyle
  2
Linepattern
 70
    14
177
     2
291
     1
 71
     2
176
     1
 72
     2
176
     1
 73
     0
176
     1
 90
        0
176
     1
 40
-0.6
176
     1
 41
-30.0
176
     1
 62
     5
 63
     7
421
 16777215
176
     1
 74
     1
176
     1
 91
        4
176
     1
 64
     7
176
     1
 65
   257
176
     1
 75
     7
176
     1
175
     7
176
     1
 42
1.0
176
     1
 92
        8
176
     1
 66
     7
176
     1
 43
1.0
176
     1
 76
     1
176
     1
 77
     6
176
     1
 78
     2
176
     1
 67
     7
176
     1
 79
     5
176
     1
170
     0
176
     1
171
     0
176
     1
290
     0
176
     1
 93
        1
176
     1
 44
0.0
176
     1
173
     0
176
     1
  0
VISUALSTYLE
  5
33
102
{ACAD_REACTORS
330
2A
102
}
330
2A
100
AcDbVisualStyle
  2
Realistic
 70
     8
177
     2
291
     0
 71
     2
176
     1
 72
     2
176
     1
 73
     0
176
     1
 90
        0
176
     1
 40
-0.6
176
     1
 41
-30.0
176
     1
 62
     5
 63
     7
421
 16777215
176
     1
 74
     1
176
     1
 91
        0
176
     1
 64
     7
176
     1
 65
   257
176
     1
 75
     1
176
     1
175
     1
176
     1
 42
1.0
176
     1
 92
        8
176
     1
 66
     8
424
  7895160
176
     1
 43
1.0
176
     1
 76
     1
176
     1
 77
     6
176
     1
 78
     2
176
     1
 67
     7
176
     1
 79
     5
176
     1
170
     0
176
     1
171
     0
176
     1
290
     0
176
     1
 93
       13
176
     1
 44
0.0
176
     1
173
     0
176
     1
  0
VISUALSTYLE
  5
37
102
{ACAD_REACTORS
330
2A
102
}
330
2A
100
AcDbVisualStyle
  2
Thicken
 70
    13
177
     2
291
     1
 71
     2
176
     1
 72
     2
176
     1
 73
     0
176
     1
 90
        0
176
     1
 40
-0.6
176
     1
 41
-30.0
176
     1
 62
     5
 63
     7
421
 16777215
176
     1
 74
     1
176
     1
 91
        4
176
     1
 64
     7
176
     1
 65
   257
176
     1
 75
     1
176
     1
175
     1
176
     1
 42
1.0
176
     1
 92
       12
176
     1
 66
     7
176
     1
 43
1.0
176
     1
 76
     1
176
     1
 77
     6
176
     1
 78
     2
176
     1
 67
     7
176
     1
 79
     5
176
     1
170
     0
176
     1
171
     0
176
     1
290
     0
176
     1
 93
        1
176
     1
 44
0.0
176
     1
173
     0
176
     1
  0
ENDSEC
  0
EOF
