  0
SECTION
  2
HEADER
  9
$ACADVER
  1
AC1024
  9
$ACADMAINTVER
 70
     6
  9
$DWGCODEPAGE
  3
UNDEFINED
  9
$INSBASE
 10
0.0
 20
0.0
 30
0.0
  9
$EXTMIN
 10
1.000000000000000E+20
 20
1.000000000000000E+20
 30
1.000000000000000E+20
  9
$EXTMAX
 10
-1.000000000000000E+20
 20
-1.000000000000000E+20
 30
-1.000000000000000E+20
  9
$LIMMIN
 10
0.0
 20
0.0
  9
$LIMMAX
 10
12.0
 20
9.0
  9
$ORTHOMODE
 70
     0
  9
$REGENMODE
 70
     1
  9
$FILLMODE
 70
     1
  9
$QTEXTMODE
 70
     0
  9
$MIRRTEXT
 70
     1
  9
$LTSCALE
 40
1.0
  9
$ATTMODE
 70
     1
  9
$TEXTSIZE
 40
0.2
  9
$TRACEWID
 40
0.05
  9
$TEXTSTYLE
  7
Standard
  9
$CLAYER
  8
0
  9
$CELTYPE
  6
ByLayer
  9
$CECOLOR
 62
   256
  9
$CELTSCALE
 40
1.0
  9
$DISPSILH
 70
     0
  9
$DIMSCALE
 40
1.0
  9
$DIMASZ
 40
0.18
  9
$DIMEXO
 40
0.0625
  9
$DIMDLI
 40
0.38
  9
$DIMRND
 40
0.0
  9
$DIMDLE
 40
0.0
  9
$DIMEXE
 40
0.18
  9
$DIMTP
 40
0.0
  9
$DIMTM
 40
0.0
  9
$DIMTXT
 40
0.18
  9
$DIMCEN
 40
0.09
  9
$DIMTSZ
 40
0.0
  9
$DIMTOL
 70
     0
  9
$DIMLIM
 70
     0
  9
$DIMTIH
 70
     1
  9
$DIMTOH
 70
     1
  9
$DIMSE1
 70
     0
  9
$DIMSE2
 70
     0
  9
$DIMTAD
 70
     0
  9
$DIMZIN
 70
     0
  9
$DIMBLK
  1

  9
$DIMASO
 70
     1
  9
$DIMSHO
 70
     1
  9
$DIMPOST
  1

  9
$DIMAPOST
  1

  9
$DIMALT
 70
     0
  9
$DIMALTD
 70
     2
  9
$DIMALTF
 40
25.4
  9
$DIMLFAC
 40
1.0
  9
$DIMTOFL
 70
     0
  9
$DIMTVP
 40
0.0
  9
$DIMTIX
 70
     0
  9
$DIMSOXD
 70
     0
  9
$DIMSAH
 70
     0
  9
$DIMBLK1
  1

  9
$DIMBLK2
  1

  9
$DIMSTYLE
  2
Standard
  9
$DIMCLRD
 70
     0
  9
$DIMCLRE
 70
     0
  9
$DIMCLRT
 70
     0
  9
$DIMTFAC
 40
1.0
  9
$DIMGAP
 40
0.09
  9
$DIMJUST
 70
     0
  9
$DIMSD1
 70
     0
  9
$DIMSD2
 70
     0
  9
$DIMTOLJ
 70
     1
  9
$DIMTZIN
 70
     0
  9
$DIMALTZ
 70
     0
  9
$DIMALTTZ
 70
     0
  9
$DIMUPT
 70
     0
  9
$DIMDEC
 70
     4
  9
$DIMTDEC
 70
     4
  9
$DIMALTU
 70
     2
  9
$DIMALTTD
 70
     2
  9
$DIMTXSTY
  7
Standard
  9
$DIMAUNIT
 70
     0
  9
$DIMADEC
 70
     0
  9
$DIMALTRND
 40
0.0
  9
$DIMAZIN
 70
     0
  9
$DIMDSEP
 70
    46
  9
$DIMATFIT
 70
     3
  9
$DIMFRAC
 70
     0
  9
$DIMLDRBLK
  1

  9
$DIMLUNIT
 70
     2
  9
$DIMLWD
 70
    -2
  9
$DIMLWE
 70
    -2
  9
$DIMTMOVE
 70
     0
  9
$DIMFXL
 40
1.0
  9
$DIMFXLON
 70
     0
  9
$DIMJOGANG
 40
0.7853981633974483
  9
$DIMTFILL
 70
     0
  9
$DIMTFILLCLR
 70
     0
  9
$DIMARCSYM
 70
     0
  9
$DIMLTYPE
  6

  9
$DIMLTEX1
  6

  9
$DIMLTEX2
  6

  9
$DIMTXTDIRECTION
 70
     0
  9
$LUNITS
 70
     2
  9
$LUPREC
 70
     4
  9
$SKETCHINC
 40
0.1
  9
$FILLETRAD
 40
0.5
  9
$AUNITS
 70
     0
  9
$AUPREC
 70
     0
  9
$MENU
  1
.
  9
$ELEVATION
 40
0.0
  9
$PELEVATION
 40
0.0
  9
$THICKNESS
 40
0.0
  9
$LIMCHECK
 70
     0
  9
$CHAMFERA
 40
0.5
  9
$CHAMFERB
 40
0.5
  9
$CHAMFERC
 40
1.0
  9
$CHAMFERD
 40
0.0
  9
$SKPOLY
 70
     0
  9
$TDCREATE
 40
2458103.912662026
  9
$TDUCREATE
 40
2458103.87099537
  9
$TDUPDATE
 40
2458103.9126736
  9
$TDUUPDATE
 40
2458103.871006944
  9
$TDINDWG
 40
0.0000000116
  9
$TDUSRTIMER
 40
0.0000000116
  9
$USRTIMER
 70
     1
  9
$ANGBASE
 50
0.0
  9
$ANGDIR
 70
     0
  9
$PDMODE
 70
     0
  9
$PDSIZE
 40
0.0
  9
$PLINEWID
 40
0.0
  9
$SPLFRAME
 70
     0
  9
$SPLINETYPE
 70
     6
  9
$SPLINESEGS
 70
     8
  9
$HANDSEED
  5
B0
  9
$SURFTAB1
 70
     6
  9
$SURFTAB2
 70
     6
  9
$SURFTYPE
 70
     6
  9
$SURFU
 70
     6
  9
$SURFV
 70
     6
  9
$UCSBASE
  2

  9
$UCSNAME
  2

  9
$UCSORG
 10
0.0
 20
0.0
 30
0.0
  9
$UCSXDIR
 10
1.0
 20
0.0
 30
0.0
  9
$UCSYDIR
 10
0.0
 20
1.0
 30
0.0
  9
$UCSORTHOREF
  2

  9
$UCSORTHOVIEW
 70
     0
  9
$UCSORGTOP
 10
0.0
 20
0.0
 30
0.0
  9
$UCSORGBOTTOM
 10
0.0
 20
0.0
 30
0.0
  9
$UCSORGLEFT
 10
0.0
 20
0.0
 30
0.0
  9
$UCSORGRIGHT
 10
0.0
 20
0.0
 30
0.0
  9
$UCSORGFRONT
 10
0.0
 20
0.0
 30
0.0
  9
$UCSORGBACK
 10
0.0
 20
0.0
 30
0.0
  9
$PUCSBASE
  2

  9
$PUCSNAME
  2

  9
$PUCSORG
 10
0.0
 20
0.0
 30
0.0
  9
$PUCSXDIR
 10
1.0
 20
0.0
 30
0.0
  9
$PUCSYDIR
 10
0.0
 20
1.0
 30
0.0
  9
$PUCSORTHOREF
  2

  9
$PUCSORTHOVIEW
 70
     0
  9
$PUCSORGTOP
 10
0.0
 20
0.0
 30
0.0
  9
$PUCSORGBOTTOM
 10
0.0
 20
0.0
 30
0.0
  9
$PUCSORGLEFT
 10
0.0
 20
0.0
 30
0.0
  9
$PUCSORGRIGHT
 10
0.0
 20
0.0
 30
0.0
  9
$PUCSORGFRONT
 10
0.0
 20
0.0
 30
0.0
  9
$PUCSORGBACK
 10
0.0
 20
0.0
 30
0.0
  9
$USERI1
 70
     0
  9
$USERI2
 70
     0
  9
$USERI3
 70
     0
  9
$USERI4
 70
     0
  9
$USERI5
 70
     0
  9
$USERR1
 40
0.0
  9
$USERR2
 40
0.0
  9
$USERR3
 40
0.0
  9
$USERR4
 40
0.0
  9
$USERR5
 40
0.0
  9
$WORLDVIEW
 70
     1
  9
$SHADEDGE
 70
     3
  9
$SHADEDIF
 70
    70
  9
$TILEMODE
 70
     1
  9
$MAXACTVP
 70
    64
  9
$PINSBASE
 10
0.0
 20
0.0
 30
0.0
  9
$PLIMCHECK
 70
     0
  9
$PEXTMIN
 10
1.000000000000000E+20
 20
1.000000000000000E+20
 30
1.000000000000000E+20
  9
$PEXTMAX
 10
-1.000000000000000E+20
 20
-1.000000000000000E+20
 30
-1.000000000000000E+20
  9
$PLIMMIN
 10
0.0
 20
0.0
  9
$PLIMMAX
 10
12.0
 20
9.0
  9
$UNITMODE
 70
     0
  9
$VISRETAIN
 70
     1
  9
$PLINEGEN
 70
     0
  9
$PSLTSCALE
 70
     1
  9
$TREEDEPTH
 70
  3020
  9
$CMLSTYLE
  2
Standard
  9
$CMLJUST
 70
     0
  9
$CMLSCALE
 40
1.0
  9
$PROXYGRAPHICS
 70
     1
  9
$MEASUREMENT
 70
     0
  9
$CELWEIGHT
370
    -1
  9
$ENDCAPS
280
     0
  9
$JOINSTYLE
280
     0
  9
$LWDISPLAY
290
     1
  9
$INSUNITS
 70
     1
  9
$HYPERLINKBASE
  1

  9
$STYLESHEET
  1

  9
$XEDIT
290
     1
  9
$CEPSNTYPE
380
     0
  9
$PSTYLEMODE
290
     1
  9
$FINGERPRINTGUID
  2
{2ED933A3-FB71-0E0B-59F9-A1B47A5D9DBA}
  9
$VERSIONGUID
  2
{FAEB1C32-E019-11D5-929B-00C0DF256EC4}
  9
$EXTNAMES
290
     1
  9
$PSVPSCALE
 40
0.0
  9
$OLESTARTUP
290
     0
  9
$SORTENTS
280
   127
  9
$INDEXCTL
280
     0
  9
$HIDETEXT
280
     1
  9
$XCLIPFRAME
280
     2
  9
$HALOGAP
280
     0
  9
$OBSCOLOR
 70
   257
  9
$OBSLTYPE
280
     0
  9
$INTERSECTIONDISPLAY
280
     0
  9
$INTERSECTIONCOLOR
 70
   257
  9
$DIMASSOC
280
     2
  9
$PROJECTNAME
  1

  9
$CAMERADISPLAY
290
     0
  9
$LENSLENGTH
 40
50.0
  9
$CAMERAHEIGHT
 40
0.0
  9
$STEPSPERSEC
 40
2.0
  9
$STEPSIZE
 40
6.0
  9
$3DDWFPREC
 40
2.0
  9
$PSOLWIDTH
 40
0.25
  9
$PSOLHEIGHT
 40
4.0
  9
$LOFTANG1
 40
1.570796326794897
  9
$LOFTANG2
 40
1.570796326794897
  9
$LOFTMAG1
 40
0.0
  9
$LOFTMAG2
 40
0.0
  9
$LOFTPARAM
 70
     7
  9
$LOFTNORMALS
280
     1
  9
$LATITUDE
 40
37.795
  9
$LONGITUDE
 40
-122.394
  9
$NORTHDIRECTION
 40
0.0
  9
$TIMEZONE
 70
 -8000
  9
$LIGHTGLYPHDISPLAY
280
     1
  9
$TILEMODELIGHTSYNCH
280
     1
  9
$CMATERIAL
347
3C
  9
$SOLIDHIST
280
     1
  9
$SHOWHIST
280
     1
  9
$DWFFRAME
280
     2
  9
$DGNFRAME
280
     2
  9
$REALWORLDSCALE
290
     1
  9
$INTERFERECOLOR
 62
   256
  9
$CSHADOW
280
     0
  9
$SHADOWPLANELOCATION
 40
0.0
  0
ENDSEC
  0
SECTION
  2
CLASSES
  0
CLASS
  1
ACDBDICTIONARYWDFLT
  2
AcDbDictionaryWithDefault
  3
ObjectDBX Classes
 90
        0
 91
        4
280
     0
281
     0
  0
CLASS
  1
VISUALSTYLE
  2
AcDbVisualStyle
  3
ObjectDBX Classes
 90
     4095
 91
        4
280
     0
281
     0
  0
CLASS
  1
MATERIAL
  2
AcDbMaterial
  3
ObjectDBX Classes
 90
     1153
 91
        4
280
     0
281
     0
  0
CLASS
  1
SUN
  2
AcDbSun
  3
SCENEOE
 90
     1024
 91
        4
280
     0
281
     0
  0
ENDSEC
  0
SECTION
  2
TABLES
  0
TABLE
  2
VPORT
  5
8
330
0
100
AcDbSymbolTable
 70
     1
  0
VPORT
  5
29
330
8
100
AcDbSymbolTableRecord
100
AcDbViewportTableRecord
  2
*Active
 70
     0
 10
0.0
 20
0.0
 11
1.0
 21
1.0
 12
0.0
 22
0.0
 13
0.0
 23
0.0
 14
0.5
 24
0.5
 15
0.5
 25
0.5
 16
0.0
 26
0.0
 36
1.0
 17
83.96111109012084
 27
13.00275694119378
 37
0.0
 40
176.9944027335292
 41
0.9487431217418439
 42
50.0
 43
0.0
 44
0.0
 50
0.0
 51
0.0
 71
     0
 72
   100
 73
     1
 74
     3
 75
     0
 76
     0
 77
     0
 78
     0
281
     0
 65
     1
110
0.0
120
0.0
130
0.0
111
1.0
121
0.0
131
0.0
112
0.0
122
1.0
132
0.0
 79
     0
146
0.0
 60
     3
 61
     5
292
     1
282
     1
141
0.0
142
0.0
 63
   250
361
3F
  0
ENDTAB
  0
TABLE
  2
LTYPE
  5
5
330
0
100
AcDbSymbolTable
 70
     1
  0
LTYPE
  5
14
330
5
100
AcDbSymbolTableRecord
100
AcDbLinetypeTableRecord
  2
ByBlock
 70
     0
  3

 72
    65
 73
     0
 40
0.0
  0
LTYPE
  5
15
330
5
100
AcDbSymbolTableRecord
100
AcDbLinetypeTableRecord
  2
ByLayer
 70
     0
  3

 72
    65
 73
     0
 40
0.0
  0
LTYPE
  5
16
330
5
100
AcDbSymbolTableRecord
100
AcDbLinetypeTableRecord
  2
Continuous
 70
     0
  3
Solid line
 72
    65
 73
     0
 40
0.0
  0
ENDTAB
  0
TABLE
  2
LAYER
  5
2
330
0
100
AcDbSymbolTable
 70
     3
  0
LAYER
  5
10
330
2
100
AcDbSymbolTableRecord
100
AcDbLayerTableRecord
  2
0
 70
     0
 62
     7
  6
Continuous
370
    -3
390
F
347
3E
  0
LAYER
  5
40
330
2
100
AcDbSymbolTableRecord
100
AcDbLayerTableRecord
  2
Cut
 70
     0
 62
     7
  6
Continuous
370
    -3
390
F
347
3E
  0
LAYER
  5
9C
330
2
100
AcDbSymbolTableRecord
100
AcDbLayerTableRecord
  2
Ritzen
 70
     0
 62
     7
  6
Continuous
370
    -3
390
F
347
3E
  0
ENDTAB
  0
TABLE
  2
STYLE
  5
3
330
0
100
AcDbSymbolTable
 70
     1
  0
STYLE
  5
11
330
3
100
AcDbSymbolTableRecord
100
AcDbTextStyleTableRecord
  2
Standard
 70
     0
 40
0.0
 41
1.0
 50
0.0
 71
     0
 42
0.2
  3
txt
  4

  0
ENDTAB
  0
TABLE
  2
VIEW
  5
6
330
0
100
AcDbSymbolTable
 70
     0
  0
ENDTAB
  0
TABLE
  2
UCS
  5
7
330
0
100
AcDbSymbolTable
 70
     0
  0
ENDTAB
  0
TABLE
  2
APPID
  5
9
330
0
100
AcDbSymbolTable
 70
     1
  0
APPID
  5
12
330
9
100
AcDbSymbolTableRecord
100
AcDbRegAppTableRecord
  2
ACAD
 70
     0
  0
ENDTAB
  0
TABLE
  2
DIMSTYLE
  5
A
330
0
100
AcDbSymbolTable
 70
     1
100
AcDbDimStyleTable
  0
DIMSTYLE
105
27
330
A
100
AcDbSymbolTableRecord
100
AcDbDimStyleTableRecord
  2
Standard
 70
     0
178
     0
340
11
  0
ENDTAB
  0
TABLE
  2
BLOCK_RECORD
  5
1
330
0
100
AcDbSymbolTable
 70
     5
  0
BLOCK_RECORD
  5
1F
330
1
100
AcDbSymbolTableRecord
100
AcDbBlockTableRecord
  2
*Model_Space
340
22
 70
     0
280
     1
281
     0
  0
BLOCK_RECORD
  5
1B
330
1
100
AcDbSymbolTableRecord
100
AcDbBlockTableRecord
  2
*Paper_Space
340
1E
 70
     0
280
     1
281
     0
  0
BLOCK_RECORD
  5
23
330
1
100
AcDbSymbolTableRecord
100
AcDbBlockTableRecord
  2
*Paper_Space0
340
26
 70
     0
280
     1
281
     0
  0
BLOCK_RECORD
  5
5E
330
1
100
AcDbSymbolTableRecord
100
AcDbBlockTableRecord
  2
block 2
340
0
102
{BLKREFS
331
5F
102
}
 70
     0
280
     1
281
     0
  0
BLOCK_RECORD
  5
6E
330
1
100
AcDbSymbolTableRecord
100
AcDbBlockTableRecord
  2
block 3
340
0
102
{BLKREFS
331
6F
102
}
 70
     0
280
     1
281
     0
  0
BLOCK_RECORD
  5
7D
330
1
100
AcDbSymbolTableRecord
100
AcDbBlockTableRecord
  2
block 4
340
0
102
{BLKREFS
331
7E
102
}
 70
     0
280
     1
281
     0
  0
BLOCK_RECORD
  5
8D
330
1
100
AcDbSymbolTableRecord
100
AcDbBlockTableRecord
  2
block 5
340
0
102
{BLKREFS
331
8E
102
}
 70
     0
280
     1
281
     0
  0
ENDTAB
  0
ENDSEC
  0
SECTION
  2
BLOCKS
  0
BLOCK
  5
20
330
1F
100
AcDbEntity
  8
0
100
AcDbBlockBegin
  2
*Model_Space
 70
     0
 10
0.0
 20
0.0
 30
0.0
  3
*Model_Space
  1

  0
ENDBLK
  5
21
330
1F
100
AcDbEntity
  8
0
100
AcDbBlockEnd
  0
BLOCK
  5
1C
330
1B
100
AcDbEntity
 67
     1
  8
0
100
AcDbBlockBegin
  2
*Paper_Space
 70
     0
 10
0.0
 20
0.0
 30
0.0
  3
*Paper_Space
  1

  0
ENDBLK
  5
1D
330
1B
100
AcDbEntity
 67
     1
  8
0
100
AcDbBlockEnd
  0
BLOCK
  5
24
330
23
100
AcDbEntity
  8
0
100
AcDbBlockBegin
  2
*Paper_Space0
 70
     0
 10
0.0
 20
0.0
 30
0.0
  3
*Paper_Space0
  1

  0
ENDBLK
  5
25
330
23
100
AcDbEntity
  8
0
100
AcDbBlockEnd
  0
BLOCK
  5
60
330
5E
100
AcDbEntity
  8
0
100
AcDbBlockBegin
  2
block 2
 70
     0
 10
0.0
 20
0.0
 30
0.0
  3
block 2
  1

  0
SPLINE
  5
62
330
5E
100
AcDbEntity
  8
Cut
 62
   179
420
  1842203
370
     9
100
AcDbSpline
210
0.0
220
0.0
230
1.0
 70
    11
 71
     3
 72
    17
 73
    13
 74
     0
 42
0.0000000001
 43
0.0000000001
 12
1.0
 22
0.0
 32
0.0
 13
1.0
 23
0.0
 33
0.0
 40
0.0
 40
0.0
 40
0.0
 40
0.0
 40
1.0
 40
1.0
 40
1.0
 40
2.0
 40
2.0
 40
2.0
 40
3.0
 40
3.0
 40
3.0
 40
4.0
 40
4.0
 40
4.0
 40
4.0
 10
34.88264235059626
 20
41.02738095296182
 30
0.0
 10
34.88264235059626
 20
43.8711350212613
 30
0.0
 10
32.56891622270247
 20
46.18451663960656
 30
0.0
 10
29.72533440917758
 20
46.18451663960656
 30
0.0
 10
29.27673991330448
 20
46.18451663960656
 30
0.0
 10
28.84369141080858
 20
46.12097615975049
 30
0.0
 10
28.42847127744884
 20
46.01284322520721
 30
0.0
 10
28.42847127744884
 20
46.01284322520721
 30
0.0
 10
32.10313931309669
 20
36.45576077588207
 30
0.0
 10
32.10313931309669
 20
36.45576077588207
 30
0.0
 10
33.75243571296649
 20
37.31709924273488
 30
0.0
 10
34.88264235059626
 20
39.0413910649492
 30
0.0
 10
34.88264235059626
 20
41.02738095296182
 30
0.0
  0
SPLINE
  5
63
330
5E
100
AcDbEntity
  8
Cut
 62
   179
420
  1842203
370
     9
100
AcDbSpline
210
0.0
220
0.0
230
1.0
 70
    11
 71
     3
 72
    17
 73
    13
 74
     0
 42
0.0000000001
 43
0.0000000001
 12
1.0
 22
0.0
 32
0.0
 13
1.0
 23
0.0
 33
0.0
 40
0.0
 40
0.0
 40
0.0
 40
0.0
 40
1.0
 40
1.0
 40
1.0
 40
2.0
 40
2.0
 40
2.0
 40
3.0
 40
3.0
 40
3.0
 40
4.0
 40
4.0
 40
4.0
 40
4.0
 10
58.43038675660201
 20
5.362568238082449
 30
0.0
 10
56.72465538631415
 20
6.568200934992412
 30
0.0
 10
54.64592783420828
 20
7.279570089002938
 30
0.0
 10
52.40301995038315
 20
7.279570089002938
 30
0.0
 10
49.70712507394124
 20
7.279570089002938
 30
0.0
 10
47.24633643252053
 20
6.254934096149288
 30
0.0
 10
45.38846103286564
 20
4.575256260468947
 30
0.0
 10
47.15058430987769
 20
3.763527168603737
 30
0.0
 10
49.10884117923372
 20
3.307202739735613
 30
0.0
 10
51.17277635260044
 20
3.307202739735613
 30
0.0
 10
53.83174411180983
 20
3.307202739735613
 30
0.0
 10
56.31742356811115
 20
4.060386740198359
 30
0.0
 10
58.43038675660201
 20
5.362568238082449
 30
0.0
  0
SPLINE
  5
64
330
5E
100
AcDbEntity
  8
Cut
 62
   179
420
  1842203
370
     9
100
AcDbSpline
210
0.0
220
0.0
230
1.0
 70
    11
 71
     3
 72
    23
 73
    19
 74
     0
 42
0.0000000001
 43
0.0000000001
 12
1.0
 22
0.0
 32
0.0
 13
1.0
 23
0.0
 33
0.0
 40
0.0
 40
0.0
 40
0.0
 40
0.0
 40
1.0
 40
1.0
 40
1.0
 40
2.0
 40
2.0
 40
2.0
 40
3.0
 40
3.0
 40
3.0
 40
4.0
 40
4.0
 40
4.0
 40
5.0
 40
5.0
 40
5.0
 40
6.0
 40
6.0
 40
6.0
 40
6.0
 10
51.35039255671153
 20
-13.60251015344364
 30
0.0
 10
51.69709835360868
 20
-13.63734868153823
 30
0.0
 10
52.04724924599044
 20
-13.66040928944262
 30
0.0
 10
52.40301995038315
 20
-13.66040928944262
 30
0.0
 10
58.17596645501631
 20
-13.66040928944262
 30
0.0
 10
62.87300963960594
 20
-8.963538359627258
 30
0.0
 10
62.87300963960594
 20
-3.190419600219843
 30
0.0
 10
62.87300963960594
 20
-1.127668678426502
 30
0.0
 10
62.27091460801786
 20
0.7959865131498755
 30
0.0
 10
61.23680460258009
 20
2.418777209630028
 30
0.0
 10
58.36822431493971
 20
0.457078420215585
 30
0.0
 10
54.90271663893977
 20
-0.692897628187973
 30
0.0
 10
51.17277635260044
 20
-0.692897628187973
 30
0.0
 10
49.41278472841989
 20
-0.692897628187973
 30
0.0
 10
47.71194108735205
 20
-0.4362810782304257
 30
0.0
 10
46.10469638424908
 20
0.040498605081369
 30
0.0
 10
46.10469638424908
 20
0.040498605081369
 30
0.0
 10
51.35039255671153
 20
-13.60251015344364
 30
0.0
 10
51.35039255671153
 20
-13.60251015344364
 30
0.0
  0
SPLINE
  5
65
330
5E
100
AcDbEntity
  8
Cut
 62
   179
420
  1842203
370
     9
100
AcDbSpline
210
0.0
220
0.0
230
1.0
 70
    11
 71
     3
 72
    29
 73
    25
 74
     0
 42
0.0000000001
 43
0.0000000001
 12
1.0
 22
0.0
 32
0.0
 13
1.0
 23
0.0
 33
0.0
 40
0.0
 40
0.0
 40
0.0
 40
0.0
 40
1.0
 40
1.0
 40
1.0
 40
2.0
 40
2.0
 40
2.0
 40
3.0
 40
3.0
 40
3.0
 40
4.0
 40
4.0
 40
4.0
 40
5.0
 40
5.0
 40
5.0
 40
6.0
 40
6.0
 40
6.0
 40
7.0
 40
7.0
 40
7.0
 40
8.0
 40
8.0
 40
8.0
 40
8.0
 10
37.92558753348353
 20
21.31275744307928
 30
0.0
 10
37.92558753348353
 20
21.31275744307928
 30
0.0
 10
43.09381212122142
 20
7.871200643054249
 30
0.0
 10
43.09381212122142
 20
7.871200643054249
 30
0.0
 10
45.61183241139053
 20
9.994886691242947
 30
0.0
 10
48.85877031069815
 20
11.27967045692652
 30
0.0
 10
52.40301995038283
 20
11.27967045692652
 30
0.0
 10
55.87627909122459
 20
11.27967045692652
 30
0.0
 10
59.06691121119548
 20
10.04880243558711
 30
0.0
 10
61.56357190935604
 20
8.001425252396693
 30
0.0
 10
63.72935271800513
 20
10.44976848637662
 30
0.0
 10
65.04789841944417
 20
13.6640641059615
 30
0.0
 10
65.04789841944417
 20
17.18215255180507
 30
0.0
 10
65.04789841944417
 20
17.5913652999124
 30
0.0
 10
65.02649576374205
 20
17.99551806402577
 30
0.0
 10
64.99161417195388
 20
18.39583815941181
 30
0.0
 10
64.99161417195388
 20
18.39583815941181
 30
0.0
 10
53.79281453282618
 20
30.80565345714486
 30
0.0
 10
53.79281453282618
 20
30.80565345714486
 30
0.0
 10
52.94379228233315
 20
30.96862800544396
 30
0.0
 10
52.06860883799899
 20
31.05710236387453
 30
0.0
 10
51.17277635260012
 20
31.05710236387453
 30
0.0
 10
44.95984809080699
 20
31.05710236387453
 30
0.0
 10
39.68788306526952
 20
26.95250794351396
 30
0.0
 10
37.92558753348353
 20
21.31275744307928
 30
0.0
  0
SPLINE
  5
66
330
5E
100
AcDbEntity
  8
Cut
 62
   179
420
  1842203
370
     9
100
AcDbSpline
210
0.0
220
0.0
230
1.0
 70
    11
 71
     3
 72
    17
 73
    13
 74
     0
 42
0.0000000001
 43
0.0000000001
 12
1.0
 22
0.0
 32
0.0
 13
1.0
 23
0.0
 33
0.0
 40
0.0
 40
0.0
 40
0.0
 40
0.0
 40
1.0
 40
1.0
 40
1.0
 40
2.0
 40
2.0
 40
2.0
 40
3.0
 40
3.0
 40
3.0
 40
4.0
 40
4.0
 40
4.0
 40
4.0
 10
38.85828254057458
 20
39.2676261790962
 30
0.0
 10
38.85828254057458
 20
36.42387211079672
 30
0.0
 10
41.17200866846837
 20
34.11049049245146
 30
0.0
 10
44.01559048199358
 20
34.11049049245146
 30
0.0
 10
45.92176181398231
 20
34.11049049245146
 30
0.0
 10
47.58582906074512
 20
35.1526749404331
 30
0.0
 10
48.47847483282013
 20
36.69465661593736
 30
0.0
 10
48.47847483282013
 20
36.69465661593736
 30
0.0
 10
41.91182139207898
 20
43.97143036357564
 30
0.0
 10
41.91182139207898
 20
43.97143036357564
 30
0.0
 10
40.11492418251302
 20
43.16448134169621
 30
0.0
 10
38.85828254057458
 20
41.36166287426497
 30
0.0
 10
38.85828254057458
 20
39.2676261790962
 30
0.0
  0
SPLINE
  5
67
330
5E
100
AcDbEntity
  8
Cut
 62
   179
420
  1842203
370
     9
100
AcDbSpline
210
0.0
220
0.0
230
1.0
 70
    11
 71
     3
 72
    20
 73
    16
 74
     0
 42
0.0000000001
 43
0.0000000001
 12
1.0
 22
0.0
 32
0.0
 13
1.0
 23
0.0
 33
0.0
 40
0.0
 40
0.0
 40
0.0
 40
0.0
 40
1.0
 40
1.0
 40
1.0
 40
2.0
 40
2.0
 40
2.0
 40
3.0
 40
3.0
 40
3.0
 40
4.0
 40
4.0
 40
4.0
 40
5.0
 40
5.0
 40
5.0
 40
5.0
 10
61.20799499158469
 20
-23.12869440263545
 30
0.0
 10
59.84080884826329
 20
-21.15269529153005
 30
0.0
 10
59.03724032632877
 20
-18.75841852482177
 30
0.0
 10
59.03724032632877
 20
-16.17894634393452
 30
0.0
 10
59.03724032632877
 20
-16.13291125551287
 30
0.0
 10
59.0402117211848
 20
-16.08758671803505
 30
0.0
 10
59.04072848550759
 20
-16.04168082069409
 30
0.0
 10
57.19120744240411
 20
-17.00092459486834
 30
0.0
 10
55.10980994129717
 20
-17.56893471299891
 30
0.0
 10
52.90477657596301
 20
-17.64515745061006
 30
0.0
 10
52.90477657596301
 20
-17.64515745061006
 30
0.0
 10
56.1573988828213
 20
-26.10461094648782
 30
0.0
 10
56.1573988828213
 20
-26.10461094648782
 30
0.0
 10
57.4495465401046
 20
-24.61630816501311
 30
0.0
 10
59.20796633946936
 20
-23.54305326212387
 30
0.0
 10
61.20799499158469
 20
-23.12869440263545
 30
0.0
  0
SPLINE
  5
68
330
5E
100
AcDbEntity
  8
Cut
 62
   179
420
  1842203
370
     9
100
AcDbSpline
210
0.0
220
0.0
230
1.0
 70
    11
 71
     3
 72
    26
 73
    22
 74
     0
 42
0.0000000001
 43
0.0000000001
 12
1.0
 22
0.0
 32
0.0
 13
1.0
 23
0.0
 33
0.0
 40
0.0
 40
0.0
 40
0.0
 40
0.0
 40
1.0
 40
1.0
 40
1.0
 40
2.0
 40
2.0
 40
2.0
 40
3.0
 40
3.0
 40
3.0
 40
4.0
 40
4.0
 40
4.0
 40
5.0
 40
5.0
 40
5.0
 40
6.0
 40
6.0
 40
6.0
 40
7.0
 40
7.0
 40
7.0
 40
7.0
 10
64.28620933950188
 20
5.051756029772565
 30
0.0
 10
65.91461984799236
 20
2.711072029706695
 30
0.0
 10
66.87276549798099
 20
-0.1291723475671855
 30
0.0
 10
66.87276549798099
 20
-3.190419600219843
 30
0.0
 10
66.87276549798099
 20
-3.732354651896425
 30
0.0
 10
66.84025240933896
 20
-4.266645897965109
 30
0.0
 10
66.78192263640399
 20
-4.793271806579113
 30
0.0
 10
68.17645422513989
 20
-4.239881812414074
 30
0.0
 10
69.69429870040061
 20
-3.932320912968395
 30
0.0
 10
71.28352124774636
 20
-3.932320912968395
 30
0.0
 10
76.29256089221862
 20
-3.932320912968395
 30
0.0
 10
80.60638026776776
 20
-6.956447261767485
 30
0.0
 10
82.50163495343762
 20
-11.27360407356797
 30
0.0
 10
82.50163495343762
 20
-11.27360407356797
 30
0.0
 10
85.16622252465731
 20
-3.960398441173181
 30
0.0
 10
85.16622252465731
 20
-3.960398441173181
 30
0.0
 10
85.16622252465731
 20
-3.960398441173181
 30
0.0
 10
68.79099466416811
 20
14.18560849873476
 30
0.0
 10
68.79099466416811
 20
14.18560849873476
 30
0.0
 10
68.19833058147123
 20
10.69508081677319
 30
0.0
 10
66.59401420953073
 20
7.54479937767361
 30
0.0
 10
64.28620933950188
 20
5.051756029772565
 30
0.0
  0
SPLINE
  5
69
330
5E
100
AcDbEntity
  8
Cut
 62
   179
420
  1842203
370
     9
100
AcDbSpline
210
0.0
220
0.0
230
1.0
 70
    11
 71
     3
 72
    23
 73
    19
 74
     0
 42
0.0000000001
 43
0.0000000001
 12
1.0
 22
0.0
 32
0.0
 13
1.0
 23
0.0
 33
0.0
 40
0.0
 40
0.0
 40
0.0
 40
0.0
 40
1.0
 40
1.0
 40
1.0
 40
2.0
 40
2.0
 40
2.0
 40
3.0
 40
3.0
 40
3.0
 40
4.0
 40
4.0
 40
4.0
 40
5.0
 40
5.0
 40
5.0
 40
6.0
 40
6.0
 40
6.0
 40
6.0
 10
76.7173626973967
 20
-27.14899164284131
 30
0.0
 10
75.12646066600189
 20
-27.93966258855293
 30
0.0
 10
73.34067388937618
 20
-28.39512574354974
 30
0.0
 10
71.45278309530572
 20
-28.42094242784233
 30
0.0
 10
71.94805863500427
 20
-29.54658431395415
 30
0.0
 10
72.22506584386515
 20
-30.78907953255629
 30
0.0
 10
72.22506584386515
 20
-32.09563199533729
 30
0.0
 10
72.22506584386515
 20
-37.14476393851945
 30
0.0
 10
68.11713398725324
 20
-41.25269579513136
 30
0.0
 10
63.06800204407108
 20
-41.25269579513136
 30
0.0
 10
62.69097940690405
 20
-41.25269579513136
 30
0.0
 10
62.32005028237656
 20
-41.2270944293066
 30
0.0
 10
61.95484862909329
 20
-41.18260963385331
 30
0.0
 10
61.95484862909329
 20
-41.18260963385331
 30
0.0
 10
66.90928351012465
 20
-54.06810649071223
 30
0.0
 10
66.90928351012465
 20
-54.06810649071223
 30
0.0
 10
66.90928351012465
 20
-54.06810649071223
 30
0.0
 10
76.7173626973967
 20
-27.14899164284131
 30
0.0
 10
76.7173626973967
 20
-27.14899164284131
 30
0.0
  0
SPLINE
  5
6A
330
5E
100
AcDbEntity
  8
Cut
 62
   179
420
  1842203
370
     9
100
AcDbSpline
210
0.0
220
0.0
230
1.0
 70
    11
 71
     3
 72
    20
 73
    16
 74
     0
 42
0.0000000001
 43
0.0000000001
 12
1.0
 22
0.0
 32
0.0
 13
1.0
 23
0.0
 33
0.0
 40
0.0
 40
0.0
 40
0.0
 40
0.0
 40
1.0
 40
1.0
 40
1.0
 40
2.0
 40
2.0
 40
2.0
 40
3.0
 40
3.0
 40
3.0
 40
4.0
 40
4.0
 40
4.0
 40
5.0
 40
5.0
 40
5.0
 40
5.0
 10
29.72533440917758
 20
50.18461700753015
 30
0.0
 10
33.04461931367513
 20
50.18461700753015
 30
0.0
 10
35.95682312289716
 20
48.40907938997273
 30
0.0
 10
37.56288357442707
 20
45.75807841407298
 30
0.0
 10
38.0443787321843
 20
46.23681749544201
 30
0.0
 10
38.58000495275352
 20
46.66058577197452
 30
0.0
 10
39.15742448792817
 20
47.02367730427308
 30
0.0
 10
39.15742448792817
 20
47.02367730427308
 30
0.0
 10
19.78623393423148
 20
68.48961510408238
 30
0.0
 10
19.78623393423148
 20
68.48961510408238
 30
0.0
 10
19.78623393423148
 20
68.48961510408238
 30
0.0
 10
26.98557916083908
 20
49.76554267359629
 30
0.0
 10
26.98557916083908
 20
49.76554267359629
 30
0.0
 10
27.85105174227419
 20
50.03751143030998
 30
0.0
 10
28.77127981007798
 20
50.18461700753015
 30
0.0
 10
29.72533440917758
 20
50.18461700753015
 30
0.0
  0
SPLINE
  5
6B
330
5E
100
AcDbEntity
  8
Cut
 62
   179
420
  1842203
370
     9
100
AcDbSpline
210
0.0
220
0.0
230
1.0
 70
    11
 71
     3
 72
    17
 73
    13
 74
     0
 42
0.0000000001
 43
0.0000000001
 12
1.0
 22
0.0
 32
0.0
 13
1.0
 23
0.0
 33
0.0
 40
0.0
 40
0.0
 40
0.0
 40
0.0
 40
1.0
 40
1.0
 40
1.0
 40
2.0
 40
2.0
 40
2.0
 40
3.0
 40
3.0
 40
3.0
 40
4.0
 40
4.0
 40
4.0
 40
4.0
 10
39.93816925227292
 20
31.07172248784006
 30
0.0
 10
38.38176123942417
 20
31.84925900701416
 30
0.0
 10
37.07551022249813
 20
33.05553765932761
 30
0.0
 10
36.17804131674377
 20
34.53692871798504
 30
0.0
 10
35.41902218580288
 20
33.78228055194106
 30
0.0
 10
34.52779751561553
 20
33.16140974995869
 30
0.0
 10
33.54417969088313
 20
32.70790599301912
 30
0.0
 10
33.54417969088313
 20
32.70790599301912
 30
0.0
 10
35.93139401184666
 20
26.49924103688899
 30
0.0
 10
35.93139401184666
 20
26.49924103688899
 30
0.0
 10
37.00096696893604
 20
28.24125356900558
 30
0.0
 10
38.35639672391402
 20
29.78980245777859
 30
0.0
 10
39.93816925227292
 20
31.07172248784006
 30
0.0
  0
SPLINE
  5
6C
330
5E
100
AcDbEntity
  8
Cut
 62
   179
420
  1842203
370
     9
100
AcDbSpline
210
0.0
220
0.0
230
1.0
 70
    11
 71
     3
 72
    17
 73
    13
 74
     0
 42
0.0000000001
 43
0.0000000001
 12
1.0
 22
0.0
 32
0.0
 13
1.0
 23
0.0
 33
0.0
 40
0.0
 40
0.0
 40
0.0
 40
0.0
 40
1.0
 40
1.0
 40
1.0
 40
2.0
 40
2.0
 40
2.0
 40
3.0
 40
3.0
 40
3.0
 40
4.0
 40
4.0
 40
4.0
 40
4.0
 10
71.28352124774636
 20
-7.932421280891981
 30
0.0
 10
66.7363397167651
 20
-7.932421280891981
 30
0.0
 10
63.03699618470383
 20
-11.63176481295326
 30
0.0
 10
63.03699618470383
 20
-16.17894634393452
 30
0.0
 10
63.03699618470383
 20
-20.72595562014152
 30
0.0
 10
66.7363397167651
 20
-24.42547140697705
 30
0.0
 10
71.28352124774636
 20
-24.42547140697705
 30
0.0
 10
75.83087503350157
 20
-24.42547140697705
 30
0.0
 10
79.53021856556285
 20
-20.72595562014152
 30
0.0
 10
79.53021856556285
 20
-16.17894634393452
 30
0.0
 10
79.53021856556285
 20
-11.63176481295326
 30
0.0
 10
75.83087503350157
 20
-7.932421280891981
 30
0.0
 10
71.28352124774636
 20
-7.932421280891981
 30
0.0
  0
SPLINE
  5
6D
330
5E
100
AcDbEntity
  8
Cut
 62
   179
420
  1842203
370
     9
100
AcDbSpline
210
0.0
220
0.0
230
1.0
 70
    11
 71
     3
 72
    20
 73
    16
 74
     0
 42
0.0000000001
 43
0.0000000001
 12
1.0
 22
0.0
 32
0.0
 13
1.0
 23
0.0
 33
0.0
 40
0.0
 40
0.0
 40
0.0
 40
0.0
 40
1.0
 40
1.0
 40
1.0
 40
2.0
 40
2.0
 40
2.0
 40
3.0
 40
3.0
 40
3.0
 40
4.0
 40
4.0
 40
4.0
 40
5.0
 40
5.0
 40
5.0
 40
5.0
 10
68.22530998549009
 20
-32.09563199533729
 30
0.0
 10
68.22530998549009
 20
-29.25205018181207
 30
0.0
 10
65.9115838575963
 20
-26.93832405391828
 30
0.0
 10
63.06800204407108
 20
-26.93832405391828
 30
0.0
 10
60.60572770522235
 20
-26.93832405391828
 30
0.0
 10
58.54370886621994
 20
-28.6742861370889
 30
0.0
 10
58.03417924395149
 20
-30.98572988922371
 30
0.0
 10
58.03417924395149
 20
-30.98572988922371
 30
0.0
 10
60.07171637316216
 20
-36.28497576463501
 30
0.0
 10
60.07171637316216
 20
-36.28497576463501
 30
0.0
 10
60.91737965555708
 20
-36.89161401589394
 30
0.0
 10
61.95026234572823
 20
-37.2529399367563
 30
0.0
 10
63.06800204407108
 20
-37.2529399367563
 30
0.0
 10
65.9115838575963
 20
-37.2529399367563
 30
0.0
 10
68.22530998549009
 20
-34.9392138088625
 30
0.0
 10
68.22530998549009
 20
-32.09563199533729
 30
0.0
  0
ENDBLK
  5
61
330
5E
100
AcDbEntity
  8
0
100
AcDbBlockEnd
  0
BLOCK
  5
70
330
6E
100
AcDbEntity
  8
0
100
AcDbBlockBegin
  2
block 3
 70
     0
 10
0.0
 20
0.0
 30
0.0
  3
block 3
  1

  0
SPLINE
  5
72
330
6E
100
AcDbEntity
  8
Cut
 62
   179
420
  1842203
370
     9
100
AcDbSpline
210
0.0
220
0.0
230
1.0
 70
    11
 71
     3
 72
    23
 73
    19
 74
     0
 42
0.0000000001
 43
0.0000000001
 12
1.0
 22
0.0
 32
0.0
 13
1.0
 23
0.0
 33
0.0
 40
0.0
 40
0.0
 40
0.0
 40
0.0
 40
1.0
 40
1.0
 40
1.0
 40
2.0
 40
2.0
 40
2.0
 40
3.0
 40
3.0
 40
3.0
 40
4.0
 40
4.0
 40
4.0
 40
5.0
 40
5.0
 40
5.0
 40
6.0
 40
6.0
 40
6.0
 40
6.0
 10
39.99748949015989
 20
-14.7237164791182
 30
0.0
 10
37.39159773327012
 20
-17.25207205574306
 30
0.0
 10
33.84153449495408
 20
-18.81186056853671
 30
0.0
 10
29.93238464784109
 20
-18.81186056853671
 30
0.0
 10
29.92334127219231
 20
-18.81186056853671
 30
0.0
 10
29.91447015131779
 20
-18.81119308128644
 30
0.0
 10
29.90542677566901
 20
-18.81117154943966
 30
0.0
 10
31.07744825975101
 20
-20.69723213653324
 30
0.0
 10
31.82604597684901
 20
-22.87091513295163
 30
0.0
 10
32.02239488766147
 20
-25.20027338160974
 30
0.0
 10
34.25257745003795
 20
-23.59808866250074
 30
0.0
 10
36.98335391826802
 20
-22.6507304677506
 30
0.0
 10
39.93280782242432
 20
-22.6507304677506
 30
0.0
 10
41.05870809069753
 20
-22.6507304677506
 30
0.0
 10
42.15211680217548
 20
-22.79081666291957
 30
0.0
 10
43.19901672460256
 20
-23.0500816300314
 30
0.0
 10
43.19901672460256
 20
-23.0500816300314
 30
0.0
 10
39.99748949015989
 20
-14.7237164791182
 30
0.0
 10
39.99748949015989
 20
-14.7237164791182
 30
0.0
  0
SPLINE
  5
73
330
6E
100
AcDbEntity
  8
Cut
 62
   179
420
  1842203
370
     9
100
AcDbSpline
210
0.0
220
0.0
230
1.0
 70
    11
 71
     3
 72
    20
 73
    16
 74
     0
 42
0.0000000001
 43
0.0000000001
 12
1.0
 22
0.0
 32
0.0
 13
1.0
 23
0.0
 33
0.0
 40
0.0
 40
0.0
 40
0.0
 40
0.0
 40
1.0
 40
1.0
 40
1.0
 40
2.0
 40
2.0
 40
2.0
 40
3.0
 40
3.0
 40
3.0
 40
4.0
 40
4.0
 40
4.0
 40
5.0
 40
5.0
 40
5.0
 40
5.0
 10
39.93280782242432
 20
-26.65065858089992
 30
0.0
 10
34.64355272392024
 20
-26.65065858089992
 30
0.0
 10
30.34028395329467
 20
-30.95392735152549
 30
0.0
 10
30.34028395329467
 20
-36.24318245002957
 30
0.0
 10
30.34028395329467
 20
-41.53243754853364
 30
0.0
 10
34.64355272392024
 20
-45.83570631915921
 30
0.0
 10
39.93280782242432
 20
-45.83570631915921
 30
0.0
 10
44.37915571492135
 20
-45.83570631915921
 30
0.0
 10
48.1277641124217
 20
-42.79428989739353
 30
0.0
 10
49.20991166803256
 20
-38.68293447714316
 30
0.0
 10
49.20991166803256
 20
-38.68293447714316
 30
0.0
 10
45.18866702656793
 20
-28.22463658072344
 30
0.0
 10
45.18866702656793
 20
-28.22463658072344
 30
0.0
 10
43.67790652889875
 20
-27.23100644723704
 30
0.0
 10
41.87224585769218
 20
-26.65065858089992
 30
0.0
 10
39.93280782242432
 20
-26.65065858089992
 30
0.0
  0
SPLINE
  5
74
330
6E
100
AcDbEntity
  8
Cut
 62
   179
420
  1842203
370
     9
100
AcDbSpline
210
0.0
220
0.0
230
1.0
 70
    11
 71
     3
 72
    20
 73
    16
 74
     0
 42
0.0000000001
 43
0.0000000001
 12
1.0
 22
0.0
 32
0.0
 13
1.0
 23
0.0
 33
0.0
 40
0.0
 40
0.0
 40
0.0
 40
0.0
 40
1.0
 40
1.0
 40
1.0
 40
2.0
 40
2.0
 40
2.0
 40
3.0
 40
3.0
 40
3.0
 40
4.0
 40
4.0
 40
4.0
 40
5.0
 40
5.0
 40
5.0
 40
5.0
 10
14.14041145300404
 20
41.6910785981952
 30
0.0
 10
14.14041145300404
 20
44.01066138841392
 30
0.0
 10
12.25318814618418
 20
45.89771244045951
 30
0.0
 10
9.933605355965465
 20
45.89771244045951
 30
0.0
 10
9.793820606651453
 20
45.89771244045951
 30
0.0
 10
9.655823000620414
 20
45.89011169854518
 30
0.0
 10
9.519504878638434
 20
45.87671888984627
 30
0.0
 10
9.519504878638434
 20
45.87671888984627
 30
0.0
 10
9.519504878638434
 20
37.50543830654413
 30
0.0
 10
9.519504878638434
 20
37.50543830654413
 30
0.0
 10
9.655823000620414
 20
37.49204549784522
 30
0.0
 10
9.793820606651453
 20
37.48444475593089
 30
0.0
 10
9.933605355965465
 20
37.48444475593089
 30
0.0
 10
12.25318814618418
 20
37.48444475593089
 30
0.0
 10
14.14041145300404
 20
39.37149580797649
 30
0.0
 10
14.14041145300404
 20
41.6910785981952
 30
0.0
  0
SPLINE
  5
75
330
6E
100
AcDbEntity
  8
Cut
 62
   179
420
  1842203
370
     9
100
AcDbSpline
210
0.0
220
0.0
230
1.0
 70
    11
 71
     3
 72
    23
 73
    19
 74
     0
 42
0.0000000001
 43
0.0000000001
 12
1.0
 22
0.0
 32
0.0
 13
1.0
 23
0.0
 33
0.0
 40
0.0
 40
0.0
 40
0.0
 40
0.0
 40
1.0
 40
1.0
 40
1.0
 40
2.0
 40
2.0
 40
2.0
 40
3.0
 40
3.0
 40
3.0
 40
4.0
 40
4.0
 40
4.0
 40
5.0
 40
5.0
 40
5.0
 40
6.0
 40
6.0
 40
6.0
 40
6.0
 10
28.28532756003671
 20
15.73667661358137
 30
0.0
 10
28.28532756003671
 20
15.73667661358137
 30
0.0
 10
22.04875733047574
 20
31.95642300845222
 30
0.0
 10
22.04875733047574
 20
31.95642300845222
 30
0.0
 10
19.99763360594512
 20
33.15473487745602
 30
0.0
 10
17.61509169573346
 20
33.84504588531296
 30
0.0
 10
15.07299880086117
 20
33.84504588531296
 30
0.0
 10
13.09887296042588
 20
33.84504588531296
 30
0.0
 10
11.22125285727116
 20
33.42786635389599
 30
0.0
 10
9.519504878638434
 20
32.68150794886339
 30
0.0
 10
9.519504878638434
 20
32.68150794886339
 30
0.0
 10
9.519504878638756
 20
7.258684197623611
 30
0.0
 10
9.519504878638756
 20
7.258684197623611
 30
0.0
 10
11.22125285727148
 20
6.512325792591017
 30
0.0
 10
13.0988729604262
 20
6.095146261174044
 30
0.0
 10
15.07299880086149
 20
6.095146261174044
 30
0.0
 10
21.24777263015547
 20
6.095146261174044
 30
0.0
 10
26.49112183131859
 20
10.15036815686163
 30
0.0
 10
28.28532756003671
 20
15.73667661358137
 30
0.0
  0
SPLINE
  5
76
330
6E
100
AcDbEntity
  8
Cut
 62
   179
420
  1842203
370
     9
100
AcDbSpline
210
0.0
220
0.0
230
1.0
 70
    11
 71
     3
 72
    23
 73
    19
 74
     0
 42
0.0000000001
 43
0.0000000001
 12
1.0
 22
0.0
 32
0.0
 13
1.0
 23
0.0
 33
0.0
 40
0.0
 40
0.0
 40
0.0
 40
0.0
 40
1.0
 40
1.0
 40
1.0
 40
2.0
 40
2.0
 40
2.0
 40
3.0
 40
3.0
 40
3.0
 40
4.0
 40
4.0
 40
4.0
 40
5.0
 40
5.0
 40
5.0
 40
6.0
 40
6.0
 40
6.0
 40
6.0
 10
28.07823425767963
 20
-26.42534933616458
 30
0.0
 10
28.07823425767963
 20
-20.65223057675717
 30
0.0
 10
23.38119107309
 20
-15.9553596469418
 30
0.0
 10
17.60824456845685
 20
-15.9553596469418
 30
0.0
 10
14.35361979984776
 20
-15.9553596469418
 30
0.0
 10
11.44137292693216
 20
-17.4483133073216
 30
0.0
 10
9.519504878638756
 20
-19.78501391573265
 30
0.0
 10
9.519504878638756
 20
-19.78501391573265
 30
0.0
 10
9.519504878638756
 20
-33.04682285881477
 30
0.0
 10
9.519504878638756
 20
-33.04682285881477
 30
0.0
 10
9.519504878638756
 20
-33.04682285881477
 30
0.0
 10
16.70530657361965
 20
-36.85419166618541
 30
0.0
 10
16.70530657361965
 20
-36.85419166618541
 30
0.0
 10
17.00319967385985
 20
-36.87977150016339
 30
0.0
 10
17.30382731864146
 20
-36.89568353493589
 30
0.0
 10
17.60824456845685
 20
-36.89568353493589
 30
0.0
 10
23.38119107309
 20
-36.89568353493589
 30
0.0
 10
28.07823425767963
 20
-32.19864035034626
 30
0.0
 10
28.07823425767963
 20
-26.42534933616458
 30
0.0
  0
SPLINE
  5
77
330
6E
100
AcDbEntity
  8
Cut
 62
   179
420
  1842203
370
     9
100
AcDbSpline
210
0.0
220
0.0
230
1.0
 70
    11
 71
     3
 72
    14
 73
    10
 74
     0
 42
0.0000000001
 43
0.0000000001
 12
1.0
 22
0.0
 32
0.0
 13
1.0
 23
0.0
 33
0.0
 40
0.0
 40
0.0
 40
0.0
 40
0.0
 40
1.0
 40
1.0
 40
1.0
 40
2.0
 40
2.0
 40
2.0
 40
3.0
 40
3.0
 40
3.0
 40
3.0
 10
51.19491109109317
 20
-43.84543159363682
 30
0.0
 10
48.95542677090651
 20
-47.15242181362171
 30
0.0
 10
45.29819953115241
 20
-49.4217923371429
 30
0.0
 10
41.10388190524787
 20
-49.78169715611759
 30
0.0
 10
41.10388190524787
 20
-49.78169715611759
 30
0.0
 10
56.64324347362866
 20
-58.01515238816297
 30
0.0
 10
56.64324347362866
 20
-58.01515238816297
 30
0.0
 10
56.64324347362866
 20
-58.01515238816297
 30
0.0
 10
51.19491109109317
 20
-43.84543159363682
 30
0.0
 10
51.19491109109317
 20
-43.84543159363682
 30
0.0
  0
SPLINE
  5
78
330
6E
100
AcDbEntity
  8
Cut
 62
   179
420
  1842203
370
     9
100
AcDbSpline
210
0.0
220
0.0
230
1.0
 70
    11
 71
     3
 72
    14
 73
    10
 74
     0
 42
0.0000000001
 43
0.0000000001
 12
1.0
 22
0.0
 32
0.0
 13
1.0
 23
0.0
 33
0.0
 40
0.0
 40
0.0
 40
0.0
 40
0.0
 40
1.0
 40
1.0
 40
1.0
 40
2.0
 40
2.0
 40
2.0
 40
3.0
 40
3.0
 40
3.0
 40
3.0
 10
26.44183543403274
 20
-37.87426290752111
 30
0.0
 10
25.29464016929133
 20
-38.76148265420685
 30
0.0
 10
24.01024397684984
 20
-39.47832089730021
 30
0.0
 10
22.62809320001439
 20
-39.99235067554627
 30
0.0
 10
22.62809320001439
 20
-39.99235067554627
 30
0.0
 10
28.08264828627011
 20
-42.88244127812236
 30
0.0
 10
28.08264828627011
 20
-42.88244127812236
 30
0.0
 10
27.23099915046956
 20
-41.36737441109661
 30
0.0
 10
26.65833815343391
 20
-39.67527269982259
 30
0.0
 10
26.44183543403274
 20
-37.87426290752111
 30
0.0
  0
SPLINE
  5
79
330
6E
100
AcDbEntity
  8
Cut
 62
   179
420
  1842203
370
     9
100
AcDbSpline
210
0.0
220
0.0
230
1.0
 70
    11
 71
     3
 72
    17
 73
    13
 74
     0
 42
0.0000000001
 43
0.0000000001
 12
1.0
 22
0.0
 32
0.0
 13
1.0
 23
0.0
 33
0.0
 40
0.0
 40
0.0
 40
0.0
 40
0.0
 40
1.0
 40
1.0
 40
1.0
 40
2.0
 40
2.0
 40
2.0
 40
3.0
 40
3.0
 40
3.0
 40
4.0
 40
4.0
 40
4.0
 40
4.0
 10
9.933605355965465
 20
49.8978128083831
 30
0.0
 10
12.51968781381504
 20
49.8978128083831
 30
0.0
 10
14.82871999911018
 20
48.69416104137716
 30
0.0
 10
16.33401140769653
 20
46.81906016429602
 30
0.0
 10
16.33401140769653
 20
46.81906016429602
 30
0.0
 10
9.519504878638434
 20
64.54188018753459
 30
0.0
 10
9.519504878638434
 20
64.54188018753459
 30
0.0
 10
9.519504878638434
 20
64.54188018753459
 30
0.0
 10
9.519504878638434
 20
49.88730526715309
 30
0.0
 10
9.519504878638434
 20
49.88730526715309
 30
0.0
 10
9.65670580633851
 20
49.89415239443002
 30
0.0
 10
9.794746476063114
 20
49.8978128083831
 30
0.0
 10
9.933605355965465
 20
49.8978128083831
 30
0.0
  0
SPLINE
  5
7A
330
6E
100
AcDbEntity
  8
Cut
 62
   179
420
  1842203
370
     9
100
AcDbSpline
210
0.0
220
0.0
230
1.0
 70
    11
 71
     3
 72
    20
 73
    16
 74
     0
 42
0.0000000001
 43
0.0000000001
 12
1.0
 22
0.0
 32
0.0
 13
1.0
 23
0.0
 33
0.0
 40
0.0
 40
0.0
 40
0.0
 40
0.0
 40
1.0
 40
1.0
 40
1.0
 40
2.0
 40
2.0
 40
2.0
 40
3.0
 40
3.0
 40
3.0
 40
4.0
 40
4.0
 40
4.0
 40
5.0
 40
5.0
 40
5.0
 40
5.0
 10
19.46239495861831
 20
-4.341942766164601
 30
0.0
 10
19.46239495861831
 20
-10.11506152557202
 30
0.0
 10
24.15943814320794
 20
-14.81176020061312
 30
0.0
 10
29.93238464784109
 20
-14.81176020061312
 30
0.0
 10
33.39879666140591
 20
-14.81176020061312
 30
0.0
 10
36.47175723870842
 20
-13.11462003719192
 30
0.0
 10
38.37790703885005
 20
-10.51159201592427
 30
0.0
 10
38.37790703885005
 20
-10.51159201592427
 30
0.0
 10
32.06522173091216
 20
5.906118178267742
 30
0.0
 10
32.06522173091216
 20
5.906118178267742
 30
0.0
 10
31.37609497462828
 20
6.049498745994484
 30
0.0
 10
30.66349850535114
 20
6.12804692305818
 30
0.0
 10
29.93238464784077
 20
6.12804692305818
 30
0.0
 10
24.15943814320794
 20
6.12804692305818
 30
0.0
 10
19.46239495861831
 20
1.431175993242814
 30
0.0
 10
19.46239495861831
 20
-4.341942766164601
 30
0.0
  0
SPLINE
  5
7B
330
6E
100
AcDbEntity
  8
Cut
 62
   179
420
  1842203
370
     9
100
AcDbSpline
210
0.0
220
0.0
230
1.0
 70
    11
 71
     3
 72
    17
 73
    13
 74
     0
 42
0.0000000001
 43
0.0000000001
 12
1.0
 22
0.0
 32
0.0
 13
1.0
 23
0.0
 33
0.0
 40
0.0
 40
0.0
 40
0.0
 40
0.0
 40
1.0
 40
1.0
 40
1.0
 40
2.0
 40
2.0
 40
2.0
 40
3.0
 40
3.0
 40
3.0
 40
4.0
 40
4.0
 40
4.0
 40
4.0
 10
18.1401673113791
 20
41.6910785981952
 30
0.0
 10
18.1401673113791
 20
40.25331106111975
 30
0.0
 10
17.76738644802829
 20
38.90143406086093
 30
0.0
 10
17.11512221343658
 20
37.72502008003524
 30
0.0
 10
18.12410455367912
 20
37.60967397681972
 30
0.0
 10
19.10742093255656
 20
37.40977231128809
 30
0.0
 10
20.05837494571943
 20
37.13291582535471
 30
0.0
 10
20.05837494571943
 20
37.13291582535471
 30
0.0
 10
18.12597782434923
 20
42.15862111923717
 30
0.0
 10
18.12597782434923
 20
42.15862111923717
 30
0.0
 10
18.13471975414305
 20
42.00378560902197
 30
0.0
 10
18.1401673113791
 20
41.84806729308868
 30
0.0
 10
18.1401673113791
 20
41.6910785981952
 30
0.0
  0
SPLINE
  5
7C
330
6E
100
AcDbEntity
  8
Cut
 62
   179
420
  1842203
370
     9
100
AcDbSpline
210
0.0
220
0.0
230
1.0
 70
    11
 71
     3
 72
    26
 73
    22
 74
     0
 42
0.0000000001
 43
0.0000000001
 12
1.0
 22
0.0
 32
0.0
 13
1.0
 23
0.0
 33
0.0
 40
0.0
 40
0.0
 40
0.0
 40
0.0
 40
1.0
 40
1.0
 40
1.0
 40
2.0
 40
2.0
 40
2.0
 40
3.0
 40
3.0
 40
3.0
 40
4.0
 40
4.0
 40
4.0
 40
5.0
 40
5.0
 40
5.0
 40
6.0
 40
6.0
 40
6.0
 40
7.0
 40
7.0
 40
7.0
 40
7.0
 10
9.519504878638756
 20
-14.43273510169529
 30
0.0
 10
11.83013042059582
 20
-12.86926464310178
 30
0.0
 10
14.61443505992796
 20
-11.95525927901822
 30
0.0
 10
17.60824456845685
 20
-11.95525927901822
 30
0.0
 10
17.61726641225885
 20
-11.95525927901822
 30
0.0
 10
17.62615906498015
 20
-11.95592676626848
 30
0.0
 10
17.63518090878215
 20
-11.95594829811527
 30
0.0
 10
16.25976959998971
 20
-9.742560576229376
 30
0.0
 10
15.46263910024325
 20
-7.13408499772568
 30
0.0
 10
15.46263910024325
 20
-4.341942766164601
 30
0.0
 10
15.46263910024325
 20
-1.986358728125024
 30
0.0
 10
16.03200572472113
 20
0.23740734391018
 30
0.0
 10
17.03476536124345
 20
2.204922907383145
 30
0.0
 10
16.39012340041285
 20
2.134212322548392
 30
0.0
 10
15.7361581499253
 20
2.095045893250458
 30
0.0
 10
15.07299880086149
 20
2.095045893250458
 30
0.0
 10
13.13444357131141
 20
2.095045893250458
 30
0.0
 10
11.26885977050827
 20
2.40936779258594
 30
0.0
 10
9.519504878638756
 20
2.982717808718644
 30
0.0
 10
9.519504878638756
 20
2.982717808718644
 30
0.0
 10
9.519504878638756
 20
-14.43273510169529
 30
0.0
 10
9.519504878638756
 20
-14.43273510169529
 30
0.0
  0
ENDBLK
  5
71
330
6E
100
AcDbEntity
  8
0
100
AcDbBlockEnd
  0
BLOCK
  5
7F
330
7D
100
AcDbEntity
  8
0
100
AcDbBlockBegin
  2
block 4
 70
     0
 10
0.0
 20
0.0
 30
0.0
  3
block 4
  1

  0
SPLINE
  5
81
330
7D
100
AcDbEntity
  8
Cut
 62
   179
420
  1842203
370
     9
100
AcDbSpline
210
0.0
220
0.0
230
1.0
 70
    11
 71
     3
 72
    17
 73
    13
 74
     0
 42
0.0000000001
 43
0.0000000001
 12
1.0
 22
0.0
 32
0.0
 13
1.0
 23
0.0
 33
0.0
 40
0.0
 40
0.0
 40
0.0
 40
0.0
 40
1.0
 40
1.0
 40
1.0
 40
2.0
 40
2.0
 40
2.0
 40
3.0
 40
3.0
 40
3.0
 40
4.0
 40
4.0
 40
4.0
 40
4.0
 10
62.55701707567877
 20
75.45914749023436
 30
0.0
 10
60.64948346604273
 20
77.56823561761968
 30
0.0
 10
57.38172357116953
 20
77.73196825473664
 30
0.0
 10
55.27276319762301
 20
75.82455019017337
 30
0.0
 10
54.94006026251297
 20
75.52364193389586
 30
0.0
 10
54.66150880015842
 20
75.18603642310742
 30
0.0
 10
54.42609159090209
 20
74.82731755230927
 30
0.0
 10
54.42609159090209
 20
74.82731755230927
 30
0.0
 10
63.56213292367268
 20
70.20414127605514
 30
0.0
 10
63.56213292367268
 20
70.20414127605514
 30
0.0
 10
64.20757529900754
 20
71.94927356594788
 30
0.0
 10
63.8891795513347
 20
73.98622557317822
 30
0.0
 10
62.55701707567877
 20
75.45914749023436
 30
0.0
  0
SPLINE
  5
82
330
7D
100
AcDbEntity
  8
Cut
 62
   179
420
  1842203
370
     9
100
AcDbSpline
210
0.0
220
0.0
230
1.0
 70
    11
 71
     3
 72
    17
 73
    13
 74
     0
 42
0.0000000001
 43
0.0000000001
 12
1.0
 22
0.0
 32
0.0
 13
1.0
 23
0.0
 33
0.0
 40
0.0
 40
0.0
 40
0.0
 40
0.0
 40
1.0
 40
1.0
 40
1.0
 40
2.0
 40
2.0
 40
2.0
 40
3.0
 40
3.0
 40
3.0
 40
4.0
 40
4.0
 40
4.0
 40
4.0
 10
103.9445964027481
 20
64.80347247437982
 30
0.0
 10
101.8708155728393
 20
64.55346692055339
 30
0.0
 10
99.8519419176423
 20
63.68668928268233
 30
0.0
 10
98.18847514977793
 20
62.18219133069414
 30
0.0
 10
96.18904772390908
 20
60.37383872306805
 30
0.0
 10
95.05129374240917
 20
57.96326295508702
 30
0.0
 10
94.80008319272912
 20
55.47129347452576
 30
0.0
 10
96.65146474005657
 20
56.05126668785747
 30
0.0
 10
98.40991163046763
 20
57.02639051813077
 30
0.0
 10
99.94064215965273
 20
58.41083713930366
 30
0.0
 10
101.9126823562948
 20
60.1944197719132
 30
0.0
 10
103.2509813593879
 20
62.42036772196693
 30
0.0
 10
103.9445964027481
 20
64.80347247437982
 30
0.0
  0
SPLINE
  5
83
330
7D
100
AcDbEntity
  8
Cut
 62
   179
420
  1842203
370
     9
100
AcDbSpline
210
0.0
220
0.0
230
1.0
 70
    11
 71
     3
 72
    23
 73
    19
 74
     0
 42
0.0000000001
 43
0.0000000001
 12
1.0
 22
0.0
 32
0.0
 13
1.0
 23
0.0
 33
0.0
 40
0.0
 40
0.0
 40
0.0
 40
0.0
 40
1.0
 40
1.0
 40
1.0
 40
2.0
 40
2.0
 40
2.0
 40
3.0
 40
3.0
 40
3.0
 40
4.0
 40
4.0
 40
4.0
 40
5.0
 40
5.0
 40
5.0
 40
6.0
 40
6.0
 40
6.0
 40
6.0
 10
111.4150710718088
 20
45.98878341274229
 30
0.0
 10
111.6955766021824
 20
46.19550854442986
 30
0.0
 10
111.9707368149716
 20
46.41327974631516
 30
0.0
 10
112.2345964001132
 20
46.65192365139781
 30
0.0
 10
116.5161385590082
 20
50.52430122686156
 30
0.0
 10
116.8491627351309
 20
57.15844820347942
 30
0.0
 10
112.9766696145937
 20
61.4401181162136
 30
0.0
 10
111.593017365797
 20
62.96997033775568
 30
0.0
 10
109.8561201885684
 20
63.9927879749115
 30
0.0
 10
108.0006302963019
 20
64.50268052008862
 30
0.0
 10
107.1890002672434
 20
61.12358535104877
 30
0.0
 10
105.3901635652691
 20
57.94610717163859
 30
0.0
 10
102.6238298441262
 20
55.44413749098206
 30
0.0
 10
101.3185209637851
 20
54.26357015106159
 30
0.0
 10
99.88494628544251
 20
53.3129993821608
 30
0.0
 10
98.3731088029563
 20
52.58849829270512
 30
0.0
 10
98.3731088029563
 20
52.58849829270512
 30
0.0
 10
111.4150710718088
 20
45.98878341274229
 30
0.0
 10
111.4150710718088
 20
45.98878341274229
 30
0.0
  0
SPLINE
  5
84
330
7D
100
AcDbEntity
  8
Cut
 62
   179
420
  1842203
370
     9
100
AcDbSpline
210
0.0
220
0.0
230
1.0
 70
    11
 71
     3
 72
    29
 73
    25
 74
     0
 42
0.0000000001
 43
0.0000000001
 12
1.0
 22
0.0
 32
0.0
 13
1.0
 23
0.0
 33
0.0
 40
0.0
 40
0.0
 40
0.0
 40
0.0
 40
1.0
 40
1.0
 40
1.0
 40
2.0
 40
2.0
 40
2.0
 40
3.0
 40
3.0
 40
3.0
 40
4.0
 40
4.0
 40
4.0
 40
5.0
 40
5.0
 40
5.0
 40
6.0
 40
6.0
 40
6.0
 40
7.0
 40
7.0
 40
7.0
 40
8.0
 40
8.0
 40
8.0
 40
8.0
 10
78.0380134792315
 20
62.8788197569969
 30
0.0
 10
78.0380134792315
 20
62.8788197569969
 30
0.0
 10
90.88738849617481
 20
56.3765465951295
 30
0.0
 10
90.88738849617481
 20
56.3765465951295
 30
0.0
 10
91.33036779572808
 20
59.64062961385691
 30
0.0
 10
92.87667238255958
 20
62.77147888701983
 30
0.0
 10
95.50528746530512
 20
65.14889097901639
 30
0.0
 10
98.08125199716862
 20
67.47868405781563
 30
0.0
 10
101.2732461797897
 20
68.7060155326255
 30
0.0
 10
104.4982501727057
 20
68.8622756288147
 30
0.0
 10
104.4622152645393
 20
72.13086746443474
 30
0.0
 10
103.2840374893612
 20
75.3992242728232
 30
0.0
 10
100.924173805322
 20
78.00843674127624
 30
0.0
 10
100.6496820413513
 20
78.31193195495517
 30
0.0
 10
100.3627109994081
 20
78.59731792429776
 30
0.0
 10
100.06831409744
 20
78.87081996876435
 30
0.0
 10
100.06831409744
 20
78.87081996876435
 30
0.0
 10
83.43839674388568
 20
80.5627058677302
 30
0.0
 10
83.43839674388568
 20
80.5627058677302
 30
0.0
 10
82.69939395872117
 20
80.11406974708893
 30
0.0
 10
81.99096180332353
 20
79.59263168313998
 30
0.0
 10
81.32656199458367
 20
78.99172508803359
 30
0.0
 10
76.71870459252511
 20
74.82421650993972
 30
0.0
 10
75.56199871937706
 20
68.24368901518895
 30
0.0
 10
78.0380134792315
 20
62.8788197569969
 30
0.0
  0
SPLINE
  5
85
330
7D
100
AcDbEntity
  8
Cut
 62
   179
420
  1842203
370
     9
100
AcDbSpline
210
0.0
220
0.0
230
1.0
 70
    11
 71
     3
 72
    17
 73
    13
 74
     0
 42
0.0000000001
 43
0.0000000001
 12
1.0
 22
0.0
 32
0.0
 13
1.0
 23
0.0
 33
0.0
 40
0.0
 40
0.0
 40
0.0
 40
0.0
 40
1.0
 40
1.0
 40
1.0
 40
2.0
 40
2.0
 40
2.0
 40
3.0
 40
3.0
 40
3.0
 40
4.0
 40
4.0
 40
4.0
 40
4.0
 10
66.68598414431439
 20
76.82079455553364
 30
0.0
 10
68.59351775394978
 20
74.71170642814768
 30
0.0
 10
71.86127764882235
 20
74.54797379103168
 30
0.0
 10
73.97023802236919
 20
76.45539185559399
 30
0.0
 10
75.38396200429752
 20
77.73401363306316
 30
0.0
 10
75.91905138784024
 20
79.62317947464072
 30
0.0
 10
75.54675714361441
 20
81.365568913805
 30
0.0
 10
75.54675714361441
 20
81.365568913805
 30
0.0
 10
65.79544228450514
 20
82.3576536398435
 30
0.0
 10
65.79544228450514
 20
82.3576536398435
 30
0.0
 10
65.00404748162173
 20
80.55385194020221
 30
0.0
 10
65.2813460216389
 20
78.37385006807669
 30
0.0
 10
66.68598414431439
 20
76.82079455553364
 30
0.0
  0
SPLINE
  5
86
330
7D
100
AcDbEntity
  8
Cut
 62
   179
420
  1842203
370
     9
100
AcDbSpline
210
0.0
220
0.0
230
1.0
 70
    11
 71
     3
 72
    20
 73
    16
 74
     0
 42
0.0000000001
 43
0.0000000001
 12
1.0
 22
0.0
 32
0.0
 13
1.0
 23
0.0
 33
0.0
 40
0.0
 40
0.0
 40
0.0
 40
0.0
 40
1.0
 40
1.0
 40
1.0
 40
2.0
 40
2.0
 40
2.0
 40
3.0
 40
3.0
 40
3.0
 40
4.0
 40
4.0
 40
4.0
 40
5.0
 40
5.0
 40
5.0
 40
5.0
 10
125.1159987719652
 20
45.53591227361487
 30
0.0
 10
122.7765556907181
 20
46.08434322386045
 30
0.0
 10
120.5745508471122
 20
47.32105591231267
 30
0.0
 10
118.8442922656781
 20
49.23413771227429
 30
0.0
 10
118.8134128449275
 20
49.26827992573642
 30
0.0
 10
118.7852138013251
 20
49.30388830712108
 30
0.0
 10
118.7548043008956
 20
49.33828134042249
 30
0.0
 10
118.0265369878484
 20
47.38623025811993
 30
0.0
 10
116.8638652913527
 20
45.56880197120463
 30
0.0
 10
115.2796170936176
 20
44.03317841839581
 30
0.0
 10
115.2796170936176
 20
44.03317841839581
 30
0.0
 10
123.366377903618
 20
39.94096570131565
 30
0.0
 10
123.366377903618
 20
39.94096570131565
 30
0.0
 10
123.3263834837631
 20
41.91152176089661
 30
0.0
 10
123.9106085900596
 20
43.88702101489471
 30
0.0
 10
125.1159987719652
 20
45.53591227361487
 30
0.0
  0
SPLINE
  5
87
330
7D
100
AcDbEntity
  8
Cut
 62
   179
420
  1842203
370
     9
100
AcDbSpline
210
0.0
220
0.0
230
1.0
 70
    11
 71
     3
 72
    26
 73
    22
 74
     0
 42
0.0000000001
 43
0.0000000001
 12
1.0
 22
0.0
 32
0.0
 13
1.0
 23
0.0
 33
0.0
 40
0.0
 40
0.0
 40
0.0
 40
0.0
 40
1.0
 40
1.0
 40
1.0
 40
2.0
 40
2.0
 40
2.0
 40
3.0
 40
3.0
 40
3.0
 40
4.0
 40
4.0
 40
4.0
 40
5.0
 40
5.0
 40
5.0
 40
6.0
 40
6.0
 40
6.0
 40
7.0
 40
7.0
 40
7.0
 40
7.0
 10
108.4960907684508
 20
68.50092583990394
 30
0.0
 10
111.2738959090879
 20
67.85724814650679
 30
0.0
 10
113.8896900478456
 20
66.3934680288429
 30
0.0
 10
115.9431137552384
 20
64.12307471054088
 30
0.0
 10
116.3066329979309
 20
63.7211451639437
 30
0.0
 10
116.6409113909074
 20
63.30307556142826
 30
0.0
 10
116.9509009215222
 20
62.87337368693431
 30
0.0
 10
117.6139610732345
 20
64.21922288830586
 30
0.0
 10
118.5333742666734
 20
65.46546722136445
 30
0.0
 10
119.7120311849147
 20
66.53148606457118
 30
0.0
 10
123.4270170064835
 20
69.89145012768853
 30
0.0
 10
128.6549120781797
 20
70.5422119102995
 30
0.0
 10
132.956402494969
 20
68.61166446061156
 30
0.0
 10
132.956402494969
 20
68.61166446061156
 30
0.0
 10
130.0270579289271
 20
75.82290179963907
 30
0.0
 10
130.0270579289271
 20
75.82290179963907
 30
0.0
 10
130.0270579289271
 20
75.82290179963907
 30
0.0
 10
105.7102868152753
 20
78.29682539433756
 30
0.0
 10
105.7102868152753
 20
78.29682539433756
 30
0.0
 10
107.6121102354686
 20
75.31050627343654
 30
0.0
 10
108.5354049540707
 20
71.89793670939652
 30
0.0
 10
108.4960907684508
 20
68.50092583990394
 30
0.0
  0
SPLINE
  5
88
330
7D
100
AcDbEntity
  8
Cut
 62
   179
420
  1842203
370
     9
100
AcDbSpline
210
0.0
220
0.0
230
1.0
 70
    11
 71
     3
 72
    23
 73
    19
 74
     0
 42
0.0000000001
 43
0.0000000001
 12
1.0
 22
0.0
 32
0.0
 13
1.0
 23
0.0
 33
0.0
 40
0.0
 40
0.0
 40
0.0
 40
0.0
 40
1.0
 40
1.0
 40
1.0
 40
2.0
 40
2.0
 40
2.0
 40
3.0
 40
3.0
 40
3.0
 40
4.0
 40
4.0
 40
4.0
 40
5.0
 40
5.0
 40
5.0
 40
6.0
 40
6.0
 40
6.0
 40
6.0
 10
139.3153544223476
 20
52.95760855193623
 30
0.0
 10
138.6658182322345
 20
51.30405705421286
 30
0.0
 10
137.6468938305721
 20
49.76838972017545
 30
0.0
 10
136.2640450426149
 20
48.48288305696141
 30
0.0
 10
137.3864274336643
 20
47.9802646288728
 30
0.0
 10
138.4253126303967
 20
47.24457113969337
 30
0.0
 10
139.3017220088628
 20
46.27555827118385
 30
0.0
 10
142.6885791877135
 20
42.53083774359789
 30
0.0
 10
142.3974245363539
 20
36.7286452919351
 30
0.0
 10
138.6527040087673
 20
33.34178811308436
 30
0.0
 10
138.3730827937444
 20
33.08888883462499
 30
0.0
 10
138.0808079843041
 20
32.85906437743679
 30
0.0
 10
137.7801143613864
 20
32.64708680852065
 30
0.0
 10
137.7801143613864
 20
32.64708680852065
 30
0.0
 10
150.0979369562741
 20
26.41381312935704
 30
0.0
 10
150.0979369562741
 20
26.41381312935704
 30
0.0
 10
150.0979369562741
 20
26.41381312935704
 30
0.0
 10
139.3153544223476
 20
52.95760855193623
 30
0.0
 10
139.3153544223476
 20
52.95760855193623
 30
0.0
  0
SPLINE
  5
89
330
7D
100
AcDbEntity
  8
Cut
 62
   179
420
  1842203
370
     9
100
AcDbSpline
210
0.0
220
0.0
230
1.0
 70
    11
 71
     3
 72
    20
 73
    16
 74
     0
 42
0.0000000001
 43
0.0000000001
 12
1.0
 22
0.0
 32
0.0
 13
1.0
 23
0.0
 33
0.0
 40
0.0
 40
0.0
 40
0.0
 40
0.0
 40
1.0
 40
1.0
 40
1.0
 40
2.0
 40
2.0
 40
2.0
 40
3.0
 40
3.0
 40
3.0
 40
4.0
 40
4.0
 40
4.0
 40
5.0
 40
5.0
 40
5.0
 40
5.0
 10
52.58957551314987
 20
78.7912498384956
 30
0.0
 10
55.05134408221379
 20
81.01776006519555
 30
0.0
 10
58.40219367411287
 20
81.65436973389532
 30
0.0
 10
61.37157720309676
 20
80.7655515263952
 30
0.0
 10
61.40755247740238
 20
81.44358874853891
 30
0.0
 10
61.52054771701027
 20
82.11716656600467
 30
0.0
 10
61.70523998375022
 20
82.77377721702638
 30
0.0
 10
61.70523998375022
 20
82.77377721702638
 30
0.0
 10
32.93955073603832
 20
85.70031633294683
 30
0.0
 10
32.93955073603832
 20
85.70031633294683
 30
0.0
 10
32.93955073603832
 20
85.70031633294683
 30
0.0
 10
50.8387254854342
 20
76.64266744570578
 30
0.0
 10
50.8387254854342
 20
76.64266744570578
 30
0.0
 10
51.29817745297451
 20
77.42491656418893
 30
0.0
 10
51.88199490684176
 20
78.15128900872631
 30
0.0
 10
52.58957551314987
 20
78.7912498384956
 30
0.0
  0
SPLINE
  5
8A
330
7D
100
AcDbEntity
  8
Cut
 62
   179
420
  1842203
370
     9
100
AcDbSpline
210
0.0
220
0.0
230
1.0
 70
    11
 71
     3
 72
    17
 73
    13
 74
     0
 42
0.0000000001
 43
0.0000000001
 12
1.0
 22
0.0
 32
0.0
 13
1.0
 23
0.0
 33
0.0
 40
0.0
 40
0.0
 40
0.0
 40
0.0
 40
1.0
 40
1.0
 40
1.0
 40
2.0
 40
2.0
 40
2.0
 40
3.0
 40
3.0
 40
3.0
 40
4.0
 40
4.0
 40
4.0
 40
4.0
 10
72.98453794495475
 20
71.46661743417452
 30
0.0
 10
71.30866211678871
 20
70.9992747872033
 30
0.0
 10
69.53072511463336
 20
71.0177117776197
 30
0.0
 10
67.87142401689512
 20
71.51439051937344
 30
0.0
 10
67.8146956594245
 20
70.44556602998951
 30
0.0
 10
67.57018103825739
 20
69.38727752228417
 30
0.0
 10
67.1448759701951
 20
68.39114234984547
 30
0.0
 10
67.1448759701951
 20
68.39114234984547
 30
0.0
 10
73.0800173541861
 20
65.38774269216879
 30
0.0
 10
73.0800173541861
 20
65.38774269216879
 30
0.0
 10
72.70476555581617
 20
67.3971655098974
 30
0.0
 10
72.67129281327828
 20
69.45485184583555
 30
0.0
 10
72.98453794495475
 20
71.46661743417452
 30
0.0
  0
SPLINE
  5
8B
330
7D
100
AcDbEntity
  8
Cut
 62
   179
420
  1842203
370
     9
100
AcDbSpline
210
0.0
220
0.0
230
1.0
 70
    11
 71
     3
 72
    17
 73
    13
 74
     0
 42
0.0000000001
 43
0.0000000001
 12
1.0
 22
0.0
 32
0.0
 13
1.0
 23
0.0
 33
0.0
 40
0.0
 40
0.0
 40
0.0
 40
0.0
 40
1.0
 40
1.0
 40
1.0
 40
2.0
 40
2.0
 40
2.0
 40
3.0
 40
3.0
 40
3.0
 40
4.0
 40
4.0
 40
4.0
 40
4.0
 10
122.3952188693882
 20
63.56478641624894
 30
0.0
 10
119.0227730285307
 20
60.51462758002827
 30
0.0
 10
118.7605775701021
 20
55.28954014745968
 30
0.0
 10
121.8107364063228
 20
51.91709430660157
 30
0.0
 10
124.8607796974707
 20
48.54477621958259
 30
0.0
 10
130.085982675112
 20
48.28245300731513
 30
0.0
 10
133.4584285159701
 20
51.33261184353548
 30
0.0
 10
136.8310021106674
 20
54.38288622482989
 30
0.0
 10
137.0930820240223
 20
59.60810141123761
 30
0.0
 10
134.0430387328744
 20
62.98041949825659
 30
0.0
 10
130.9928798966534
 20
66.35286533911501
 30
0.0
 10
125.7677924640854
 20
66.61506079754238
 30
0.0
 10
122.3952188693882
 20
63.56478641624894
 30
0.0
  0
SPLINE
  5
8C
330
7D
100
AcDbEntity
  8
Cut
 62
   179
420
  1842203
370
     9
100
AcDbSpline
210
0.0
220
0.0
230
1.0
 70
    11
 71
     3
 72
    20
 73
    16
 74
     0
 42
0.0000000001
 43
0.0000000001
 12
1.0
 22
0.0
 32
0.0
 13
1.0
 23
0.0
 33
0.0
 40
0.0
 40
0.0
 40
0.0
 40
0.0
 40
1.0
 40
1.0
 40
1.0
 40
2.0
 40
2.0
 40
2.0
 40
3.0
 40
3.0
 40
3.0
 40
4.0
 40
4.0
 40
4.0
 40
5.0
 40
5.0
 40
5.0
 40
5.0
 10
136.3352778682188
 20
43.59260167685721
 30
0.0
 10
134.4278598036555
 20
45.70156205040341
 30
0.0
 10
131.1598688186368
 20
45.86555019519861
 30
0.0
 10
129.05090844509
 20
43.95813213063534
 30
0.0
 10
127.22474716331
 20
42.30648752822223
 30
0.0
 10
126.8598866978257
 20
39.63583912617913
 30
0.0
 10
128.032461290078
 20
37.5797599737981
 30
0.0
 10
128.032461290078
 20
37.5797599737981
 30
0.0
 10
133.0982421682437
 20
35.01628021078346
 30
0.0
 10
133.0982421682437
 20
35.01628021078346
 30
0.0
 10
134.1323545321131
 20
35.13361722103132
 30
0.0
 10
135.1407687226601
 20
35.55847471837002
 30
0.0
 10
135.96974741444
 20
36.30823225372836
 30
0.0
 10
138.0787077879869
 20
38.2156503182913
 30
0.0
 10
138.2426959327818
 20
41.48364130331036
 30
0.0
 10
136.3352778682188
 20
43.59260167685721
 30
0.0
  0
ENDBLK
  5
80
330
7D
100
AcDbEntity
  8
0
100
AcDbBlockEnd
  0
BLOCK
  5
8F
330
8D
100
AcDbEntity
  8
0
100
AcDbBlockBegin
  2
block 5
 70
     0
 10
0.0
 20
0.0
 30
0.0
  3
block 5
  1

  0
SPLINE
  5
91
330
8D
100
AcDbEntity
  8
Cut
 62
   179
420
  1842203
370
     9
100
AcDbSpline
210
0.0
220
0.0
230
1.0
 70
    11
 71
     3
 72
    23
 73
    19
 74
     0
 42
0.0000000001
 43
0.0000000001
 12
1.0
 22
0.0
 32
0.0
 13
1.0
 23
0.0
 33
0.0
 40
0.0
 40
0.0
 40
0.0
 40
0.0
 40
1.0
 40
1.0
 40
1.0
 40
2.0
 40
2.0
 40
2.0
 40
3.0
 40
3.0
 40
3.0
 40
4.0
 40
4.0
 40
4.0
 40
5.0
 40
5.0
 40
5.0
 40
6.0
 40
6.0
 40
6.0
 40
6.0
 10
103.7472018412942
 20
37.54193233515153
 30
0.0
 10
103.5104963773128
 20
33.91878117990106
 30
0.0
 10
101.9238446813665
 20
30.380642460682
 30
0.0
 10
99.02459906001488
 20
27.75846257473584
 30
0.0
 10
99.01789198346924
 20
27.75239645840495
 30
0.0
 10
99.01086492360518
 20
27.74694093327342
 30
0.0
 10
99.00414340392537
 20
27.74089078617241
 30
0.0
 10
101.1385124144071
 20
27.12825074142073
 30
0.0
 10
103.1517779050852
 20
26.01826949157429
 30
0.0
 10
104.8598884477529
 20
24.42239320583219
 30
0.0
 10
105.4392037908162
 20
27.10662566017853
 30
0.0
 10
106.8290323540163
 20
29.64099032090009
 30
0.0
 10
109.0165134308337
 20
31.61942527593562
 30
0.0
 10
109.8515444607341
 20
32.37465675912619
 30
0.0
 10
110.7564449533522
 20
33.0041977433933
 30
0.0
 10
111.706794656811
 20
33.51415187062919
 30
0.0
 10
111.706794656811
 20
33.51415187062919
 30
0.0
 10
103.7472018412942
 20
37.54193233515153
 30
0.0
 10
103.7472018412942
 20
37.54193233515153
 30
0.0
  0
SPLINE
  5
92
330
8D
100
AcDbEntity
  8
Cut
 62
   179
420
  1842203
370
     9
100
AcDbSpline
210
0.0
220
0.0
230
1.0
 70
    11
 71
     3
 72
    20
 73
    16
 74
     0
 42
0.0000000001
 43
0.0000000001
 12
1.0
 22
0.0
 32
0.0
 13
1.0
 23
0.0
 33
0.0
 40
0.0
 40
0.0
 40
0.0
 40
0.0
 40
1.0
 40
1.0
 40
1.0
 40
2.0
 40
2.0
 40
2.0
 40
3.0
 40
3.0
 40
3.0
 40
4.0
 40
4.0
 40
4.0
 40
5.0
 40
5.0
 40
5.0
 40
5.0
 10
111.6995855702338
 20
28.6528533814525
 30
0.0
 10
107.7767761911368
 20
25.10492637088425
 30
0.0
 10
107.4717767991437
 20
19.0268329530956
 30
0.0
 10
111.0197038097126
 20
15.10402357399863
 30
0.0
 10
114.5676308202818
 20
11.1812141949023
 30
0.0
 10
120.6457242380708
 20
10.87621480290858
 30
0.0
 10
124.5685336171665
 20
14.42414181347747
 30
0.0
 10
127.8661955545439
 20
17.40666345260965
 30
0.0
 10
128.6062530171174
 20
22.17684098814034
 30
0.0
 10
126.6510192134455
 20
25.95193668185681
 30
0.0
 10
126.6510192134455
 20
25.95193668185681
 30
0.0
 10
116.6534197780509
 20
31.01102838750544
 30
0.0
 10
116.6534197780509
 20
31.01102838750544
 30
0.0
 10
114.8664474231708
 20
30.73457237584478
 30
0.0
 10
113.1379820123104
 20
29.95378980113854
 30
0.0
 10
111.6995855702338
 20
28.6528533814525
 30
0.0
  0
SPLINE
  5
93
330
8D
100
AcDbEntity
  8
Cut
 62
   179
420
  1842203
370
     9
100
AcDbSpline
210
0.0
220
0.0
230
1.0
 70
    11
 71
     3
 72
    20
 73
    16
 74
     0
 42
0.0000000001
 43
0.0000000001
 12
1.0
 22
0.0
 32
0.0
 13
1.0
 23
0.0
 33
0.0
 40
0.0
 40
0.0
 40
0.0
 40
0.0
 40
1.0
 40
1.0
 40
1.0
 40
2.0
 40
2.0
 40
2.0
 40
3.0
 40
3.0
 40
3.0
 40
4.0
 40
4.0
 40
4.0
 40
5.0
 40
5.0
 40
5.0
 40
5.0
 10
46.72821563736049
 20
62.03790752517842
 30
0.0
 10
45.17228568476724
 20
63.75824072061013
 30
0.0
 10
42.50681835075537
 20
63.89187220697114
 30
0.0
 10
40.7864851553243
 20
62.33594225437853
 30
0.0
 10
40.68281291500841
 20
62.24217742766476
 30
0.0
 10
40.58556454711643
 20
62.14397424293821
 30
0.0
 10
40.49344698223327
 20
62.04260189983945
 30
0.0
 10
40.49344698223327
 20
62.04260189983945
 30
0.0
 10
46.10873532462168
 20
55.83398889561607
 30
0.0
 10
46.10873532462168
 20
55.83398889561607
 30
0.0
 10
46.21882014835201
 20
55.9154955167568
 30
0.0
 10
46.32626536893355
 20
56.00242442519481
 30
0.0
 10
46.42993760924848
 20
56.09618925190858
 30
0.0
 10
48.15027080467956
 20
57.65211920450184
 30
0.0
 10
48.28414558995311
 20
60.31757432974734
 30
0.0
 10
46.72821563736049
 20
62.03790752517842
 30
0.0
  0
SPLINE
  5
94
330
8D
100
AcDbEntity
  8
Cut
 62
   179
420
  1842203
370
     9
100
AcDbSpline
210
0.0
220
0.0
230
1.0
 70
    11
 71
     3
 72
    23
 73
    19
 74
     0
 42
0.0000000001
 43
0.0000000001
 12
1.0
 22
0.0
 32
0.0
 13
1.0
 23
0.0
 33
0.0
 40
0.0
 40
0.0
 40
0.0
 40
0.0
 40
1.0
 40
1.0
 40
1.0
 40
2.0
 40
2.0
 40
2.0
 40
3.0
 40
3.0
 40
3.0
 40
4.0
 40
4.0
 40
4.0
 40
5.0
 40
5.0
 40
5.0
 40
6.0
 40
6.0
 40
6.0
 40
6.0
 10
74.6285779128173
 20
52.27678981499066
 30
0.0
 10
74.6285779128173
 20
52.27678981499066
 30
0.0
 10
59.12330335117823
 20
60.12289981360534
 30
0.0
 10
59.12330335117823
 20
60.12289981360534
 30
0.0
 10
56.79827077052738
 20
59.63578240718686
 30
0.0
 10
54.56819666703551
 20
58.54959424005419
 30
0.0
 10
52.68283745012711
 20
56.84440893945464
 30
0.0
 10
51.2187145787297
 20
55.52020463069995
 30
0.0
 10
50.10600151920475
 20
53.95133062034521
 30
0.0
 10
49.34453176370052
 20
52.25629054323925
 30
0.0
 10
49.34453176370052
 20
52.25629054323925
 30
0.0
 10
66.39765576550258
 20
33.40129308193585
 30
0.0
 10
66.39765576550258
 20
33.40129308193585
 30
0.0
 10
68.16041023708323
 20
33.98925032907665
 30
0.0
 10
69.8327947437994
 20
34.93931668197066
 30
0.0
 10
71.29691761519682
 20
36.26352099072535
 30
0.0
 10
75.87647754192544
 20
40.40543633515655
 30
0.0
 10
77.0450784151163
 20
46.93015146056837
 30
0.0
 10
74.6285779128173
 20
52.27678981499066
 30
0.0
  0
SPLINE
  5
95
330
8D
100
AcDbEntity
  8
Cut
 62
   179
420
  1842203
370
     9
100
AcDbSpline
210
0.0
220
0.0
230
1.0
 70
    11
 71
     3
 72
    23
 73
    19
 74
     0
 42
0.0000000001
 43
0.0000000001
 12
1.0
 22
0.0
 32
0.0
 13
1.0
 23
0.0
 33
0.0
 40
0.0
 40
0.0
 40
0.0
 40
0.0
 40
1.0
 40
1.0
 40
1.0
 40
2.0
 40
2.0
 40
2.0
 40
3.0
 40
3.0
 40
3.0
 40
4.0
 40
4.0
 40
4.0
 40
5.0
 40
5.0
 40
5.0
 40
6.0
 40
6.0
 40
6.0
 40
6.0
 10
102.7564334175848
 20
20.86814348112427
 30
0.0
 10
98.88394029704698
 20
25.14981339385846
 30
0.0
 10
92.24978111166405
 20
25.4825942710692
 30
0.0
 10
87.96823895276898
 20
21.61021669560546
 30
0.0
 10
85.55442598100446
 20
19.42707920067106
 30
0.0
 10
84.39598332395384
 20
16.36634348990244
 30
0.0
 10
84.53803001766951
 20
13.34416393448196
 30
0.0
 10
84.53803001766951
 20
13.34416393448196
 30
0.0
 10
93.43378741297367
 20
3.508459749894162
 30
0.0
 10
93.43378741297367
 20
3.508459749894162
 30
0.0
 10
93.43378741297367
 20
3.508459749894162
 30
0.0
 10
101.3170897192018
 20
5.504793385223399
 30
0.0
 10
101.3170897192018
 20
5.504793385223399
 30
0.0
 10
101.5551824577879
 20
5.685642700702579
 30
0.0
 10
101.7888183213481
 20
5.875496478426901
 30
0.0
 10
102.0145912932498
 20
6.079693508630881
 30
0.0
 10
106.2961334521455
 20
9.952071084094628
 30
0.0
 10
106.6290420831947
 20
16.58634581455097
 30
0.0
 10
102.7564334175848
 20
20.86814348112427
 30
0.0
  0
SPLINE
  5
96
330
8D
100
AcDbEntity
  8
Cut
 62
   179
420
  1842203
370
     9
100
AcDbSpline
210
0.0
220
0.0
230
1.0
 70
    11
 71
     3
 72
    14
 73
    10
 74
     0
 42
0.0000000001
 43
0.0000000001
 12
1.0
 22
0.0
 32
0.0
 13
1.0
 23
0.0
 33
0.0
 40
0.0
 40
0.0
 40
0.0
 40
0.0
 40
1.0
 40
1.0
 40
1.0
 40
2.0
 40
2.0
 40
2.0
 40
3.0
 40
3.0
 40
3.0
 40
3.0
 10
131.586106825925
 20
23.45463625049093
 30
0.0
 10
132.1434423627268
 20
19.49978461802038
 30
0.0
 10
130.9532852946766
 20
15.36349644991606
 30
0.0
 10
128.083960179761
 20
12.28310601839464
 30
0.0
 10
128.083960179761
 20
12.28310601839464
 30
0.0
 10
145.1316634639524
 20
16.60020640466171
 30
0.0
 10
145.1316634639524
 20
16.60020640466171
 30
0.0
 10
145.1316634639524
 20
16.60020640466171
 30
0.0
 10
131.586106825925
 20
23.45463625049093
 30
0.0
 10
131.586106825925
 20
23.45463625049093
 30
0.0
  0
SPLINE
  5
97
330
8D
100
AcDbEntity
  8
Cut
 62
   179
420
  1842203
370
     9
100
AcDbSpline
210
0.0
220
0.0
230
1.0
 70
    11
 71
     3
 72
    14
 73
    10
 74
     0
 42
0.0000000001
 43
0.0000000001
 12
1.0
 22
0.0
 32
0.0
 13
1.0
 23
0.0
 33
0.0
 40
0.0
 40
0.0
 40
0.0
 40
0.0
 40
1.0
 40
1.0
 40
1.0
 40
2.0
 40
2.0
 40
2.0
 40
3.0
 40
3.0
 40
3.0
 40
3.0
 10
109.2224911915449
 20
11.27932082460216
 30
0.0
 10
108.9667959347612
 20
9.85179296497481
 30
0.0
 10
108.495056224946
 20
8.458597970688468
 30
0.0
 10
107.8147763312351
 20
7.150245323638011
 30
0.0
 10
107.8147763312351
 20
7.150245323638011
 30
0.0
 10
113.7987967223076
 20
8.665598364788732
 30
0.0
 10
113.7987967223076
 20
8.665598364788732
 30
0.0
 10
112.1508890839677
 20
9.21798797146855
 30
0.0
 10
110.5911433083089
 20
10.08881627494614
 30
0.0
 10
109.2224911915449
 20
11.27932082460216
 30
0.0
  0
SPLINE
  5
98
330
8D
100
AcDbEntity
  8
Cut
 62
   179
420
  1842203
370
     9
100
AcDbSpline
210
0.0
220
0.0
230
1.0
 70
    11
 71
     3
 72
    17
 73
    13
 74
     0
 42
0.0000000001
 43
0.0000000001
 12
1.0
 22
0.0
 32
0.0
 13
1.0
 23
0.0
 33
0.0
 40
0.0
 40
0.0
 40
0.0
 40
0.0
 40
1.0
 40
1.0
 40
1.0
 40
2.0
 40
2.0
 40
2.0
 40
3.0
 40
3.0
 40
3.0
 40
4.0
 40
4.0
 40
4.0
 40
4.0
 10
38.10329747085085
 20
65.30264190270077
 30
0.0
 10
40.02128182438305
 20
67.03733452630935
 30
0.0
 10
42.54117573767931
 20
67.69349142422257
 30
0.0
 10
44.91536493282014
 20
67.31253054739986
 30
0.0
 10
44.91536493282014
 20
67.31253054739986
 30
0.0
 10
27.97322840865318
 20
75.88573641260393
 30
0.0
 10
27.97322840865318
 20
75.88573641260393
 30
0.0
 10
27.97322840865318
 20
75.88573641260393
 30
0.0
 10
37.80322549144295
 20
65.01707856310807
 30
0.0
 10
37.80322549144295
 20
65.01707856310807
 30
0.0
 10
37.90038850752386
 20
65.11418842882586
 30
0.0
 10
38.00031190741959
 20
65.20949813075337
 30
0.0
 10
38.10329747085085
 20
65.30264190270077
 30
0.0
  0
SPLINE
  5
99
330
8D
100
AcDbEntity
  8
Cut
 62
   179
420
  1842203
370
     9
100
AcDbSpline
210
0.0
220
0.0
230
1.0
 70
    11
 71
     3
 72
    20
 73
    16
 74
     0
 42
0.0000000001
 43
0.0000000001
 12
1.0
 22
0.0
 32
0.0
 13
1.0
 23
0.0
 33
0.0
 40
0.0
 40
0.0
 40
0.0
 40
0.0
 40
1.0
 40
1.0
 40
1.0
 40
2.0
 40
2.0
 40
2.0
 40
3.0
 40
3.0
 40
3.0
 40
4.0
 40
4.0
 40
4.0
 40
5.0
 40
5.0
 40
5.0
 40
5.0
 10
81.5533324557984
 20
31.46710768370014
 30
0.0
 10
85.42582557633555
 20
27.18543777096596
 30
0.0
 10
92.05986921664636
 20
26.85278464759434
 30
0.0
 10
96.34141137554207
 20
30.72516222305809
 30
0.0
 10
98.91229769230715
 20
33.05036238520727
 30
0.0
 10
100.0529704402371
 20
36.37033785591162
 30
0.0
 10
99.72061908277233
 20
39.57949732768591
 30
0.0
 10
99.72061908277233
 20
39.57949732768591
 30
0.0
 10
84.0261031184341
 20
47.5213719466075
 30
0.0
 10
84.0261031184341
 20
47.5213719466075
 30
0.0
 10
83.4188310863342
 20
47.1654585407669
 30
0.0
 10
82.83764087051384
 20
46.74571876759606
 30
0.0
 10
82.29540567027927
 20
46.25530214851593
 30
0.0
 10
78.01386351138451
 20
42.38292457305155
 30
0.0
 10
77.68083933526124
 20
35.74877759643433
 30
0.0
 10
81.5533324557984
 20
31.46710768370014
 30
0.0
  0
SPLINE
  5
9A
330
8D
100
AcDbEntity
  8
Cut
 62
   179
420
  1842203
370
     9
100
AcDbSpline
210
0.0
220
0.0
230
1.0
 70
    11
 71
     3
 72
    17
 73
    13
 74
     0
 42
0.0000000001
 43
0.0000000001
 12
1.0
 22
0.0
 32
0.0
 13
1.0
 23
0.0
 33
0.0
 40
0.0
 40
0.0
 40
0.0
 40
0.0
 40
1.0
 40
1.0
 40
1.0
 40
2.0
 40
2.0
 40
2.0
 40
3.0
 40
3.0
 40
3.0
 40
4.0
 40
4.0
 40
4.0
 40
4.0
 10
49.69465977800449
 20
64.72086411950634
 30
0.0
 10
50.65908561580411
 20
63.65453476416897
 30
0.0
 10
51.28942251485541
 20
62.4018526857455
 30
0.0
 10
51.59478171024251
 20
61.09183198064154
 30
0.0
 10
52.42047169143583
 20
61.68309008114043
 30
0.0
 10
53.2838445383165
 20
62.19442080006785
 30
0.0
 10
54.174835394052
 20
62.62696946085659
 30
0.0
 10
54.174835394052
 20
62.62696946085659
 30
0.0
 10
49.37051784121574
 20
65.05810195151646
 30
0.0
 10
49.37051784121574
 20
65.05810195151646
 30
0.0
 10
49.48086192600734
 20
64.94913113197434
 30
0.0
 10
49.5893548871279
 20
64.83729577448801
 30
0.0
 10
49.69465977800449
 20
64.72086411950634
 30
0.0
  0
SPLINE
  5
9B
330
8D
100
AcDbEntity
  8
Cut
 62
   179
420
  1842203
370
     9
100
AcDbSpline
210
0.0
220
0.0
230
1.0
 70
    11
 71
     3
 72
    26
 73
    22
 74
     0
 42
0.0000000001
 43
0.0000000001
 12
1.0
 22
0.0
 32
0.0
 13
1.0
 23
0.0
 33
0.0
 40
0.0
 40
0.0
 40
0.0
 40
0.0
 40
1.0
 40
1.0
 40
1.0
 40
2.0
 40
2.0
 40
2.0
 40
3.0
 40
3.0
 40
3.0
 40
4.0
 40
4.0
 40
4.0
 40
5.0
 40
5.0
 40
5.0
 40
6.0
 40
6.0
 40
6.0
 40
7.0
 40
7.0
 40
7.0
 40
7.0
 10
80.94782795352862
 20
17.31371524940729
 30
0.0
 10
81.61277309453615
 20
20.02319457752411
 30
0.0
 10
83.0646735779462
 20
22.56872853260151
 30
0.0
 10
85.28505126829553
 20
24.57691634392706
 30
0.0
 10
85.29174237561128
 20
24.58296801712378
 30
0.0
 10
85.29878540470523
 20
24.58843798538948
 30
0.0
 10
85.30549095515451
 20
24.59447368935696
 30
0.0
 10
82.80071207441375
 20
25.31344812168462
 30
0.0
 10
80.4598017323023
 20
26.71334120598551
 30
0.0
 10
78.58688831515441
 20
28.78415108937286
 30
0.0
 10
77.00680944231097
 20
30.53118483714674
 30
0.0
 10
75.93742578200857
 20
32.56237475521959
 30
0.0
 10
75.36135851970272
 20
34.69422627219906
 30
0.0
 10
74.93068699907967
 20
34.20937032885567
 30
0.0
 10
74.47194161043512
 20
33.74165543019771
 30
0.0
 10
73.98010529966994
 20
33.29682134240311
 30
0.0
 10
72.54236359601785
 20
31.99647709121637
 30
0.0
 10
70.94790074049482
 20
30.9781994392076
 30
0.0
 10
69.26588888433457
 20
30.22999566051975
 30
0.0
 10
69.26588888433457
 20
30.22999566051975
 30
0.0
 10
80.94782795352862
 20
17.31371524940729
 30
0.0
 10
80.94782795352862
 20
17.31371524940729
 30
0.0
  0
ENDBLK
  5
90
330
8D
100
AcDbEntity
  8
0
100
AcDbBlockEnd
  0
ENDSEC
  0
SECTION
  2
ENTITIES
  0
POLYLINE
  5
41
330
1F
100
AcDbEntity
  8
Cut
 62
   179
420
  1842203
370
     9
100
AcDb2dPolyline
 66
     1
 10
0.0
 20
0.0
 30
0.0
  0
VERTEX
  5
42
330
41
100
AcDbEntity
  8
Cut
 62
   179
420
  1842203
370
     9
100
AcDbVertex
100
AcDb2dVertex
 10
67.04833617664805
 20
-69.75302334334482
 30
0.0
  0
VERTEX
  5
43
330
41
100
AcDbEntity
  8
Cut
 62
   179
420
  1842203
370
     9
100
AcDbVertex
100
AcDb2dVertex
 10
67.04904672759187
 20
-69.7530448751916
 30
0.0
  0
VERTEX
  5
44
330
41
100
AcDbEntity
  8
Cut
 62
   179
420
  1842203
370
     9
100
AcDbVertex
100
AcDb2dVertex
 10
67.04885294097083
 20
-69.75252811086881
 30
0.0
  0
VERTEX
  5
45
330
41
100
AcDbEntity
  8
Cut
 62
   179
420
  1842203
370
     9
100
AcDbVertex
100
AcDb2dVertex
 10
76.44950652341852
 20
-60.77671939729245
 30
0.0
  0
VERTEX
  5
46
330
41
100
AcDbEntity
  8
Cut
 62
   179
420
  1842203
370
     9
100
AcDbVertex
100
AcDb2dVertex
 10
92.40255946403747
 20
-15.96862326456001
 30
0.0
  0
VERTEX
  5
47
330
41
100
AcDbEntity
  8
Cut
 62
   179
420
  1842203
370
     9
100
AcDbVertex
100
AcDb2dVertex
 10
91.467129912405
 20
-2.733040110859361
 30
0.0
  0
VERTEX
  5
48
330
41
100
AcDbEntity
  8
Cut
 62
   179
420
  1842203
370
     9
100
AcDbVertex
100
AcDb2dVertex
 10
91.46191920548357
 20
-2.72606379250173
 30
0.0
  0
VERTEX
  5
49
330
41
100
AcDbEntity
  8
Cut
 62
   179
420
  1842203
370
     9
100
AcDbVertex
100
AcDb2dVertex
 10
91.46773280411492
 20
-2.732501814689791
 30
0.0
  0
VERTEX
  5
4A
330
41
100
AcDbEntity
  8
Cut
 62
   179
420
  1842203
370
     9
100
AcDbVertex
100
AcDb2dVertex
 10
104.1410763746228
 20
-4.891995324078303
 30
0.0
  0
VERTEX
  5
4B
330
41
100
AcDbEntity
  8
Cut
 62
   179
420
  1842203
370
     9
100
AcDbVertex
100
AcDb2dVertex
 10
150.3462448540108
 20
6.39280251109963
 30
0.0
  0
VERTEX
  5
4C
330
41
100
AcDbEntity
  8
Cut
 62
   179
420
  1842203
370
     9
100
AcDbVertex
100
AcDb2dVertex
 10
160.6338167372897
 20
14.7005426145457
 30
0.0
  0
VERTEX
  5
4D
330
41
100
AcDbEntity
  8
Cut
 62
   179
420
  1842203
370
     9
100
AcDbVertex
100
AcDb2dVertex
 10
160.6343550334592
 20
14.70028423238431
 30
0.0
  0
VERTEX
  5
4E
330
41
100
AcDbEntity
  8
Cut
 62
   179
420
  1842203
370
     9
100
AcDbVertex
100
AcDb2dVertex
 10
160.6343550334592
 20
14.70097325148136
 30
0.0
  0
VERTEX
  5
4F
330
41
100
AcDbEntity
  8
Cut
 62
   179
420
  1842203
370
     9
100
AcDbVertex
100
AcDb2dVertex
 10
160.6349579251691
 20
14.70146848395736
 30
0.0
  0
VERTEX
  5
50
330
41
100
AcDbEntity
  8
Cut
 62
   179
420
  1842203
370
     9
100
AcDbVertex
100
AcDb2dVertex
 10
160.6343550334592
 20
14.70176992981232
 30
0.0
  0
VERTEX
  5
51
330
41
100
AcDbEntity
  8
Cut
 62
   179
420
  1842203
370
     9
100
AcDbVertex
100
AcDb2dVertex
 10
160.6343550334592
 20
30.26337389592007
 30
0.0
  0
VERTEX
  5
52
330
41
100
AcDbEntity
  8
Cut
 62
   179
420
  1842203
370
     9
100
AcDbVertex
100
AcDb2dVertex
 10
142.4582681035967
 20
74.21669877506814
 30
0.0
  0
VERTEX
  5
53
330
41
100
AcDbEntity
  8
Cut
 62
   179
420
  1842203
370
     9
100
AcDbVertex
100
AcDb2dVertex
 10
133.8621950398813
 20
80.81608062291916
 30
0.0
  0
VERTEX
  5
54
330
41
100
AcDbEntity
  8
Cut
 62
   179
420
  1842203
370
     9
100
AcDbVertex
100
AcDb2dVertex
 10
131.6163803567412
 20
86.25487439732986
 30
0.0
  0
VERTEX
  5
55
330
41
100
AcDbEntity
  8
Cut
 62
   179
420
  1842203
370
     9
100
AcDbVertex
100
AcDb2dVertex
 10
31.71479092452191
 20
96.87563007772589
 30
0.0
  0
VERTEX
  5
56
330
41
100
AcDbEntity
  8
Cut
 62
   179
420
  1842203
370
     9
100
AcDbVertex
100
AcDb2dVertex
 10
4.019409936437069
 20
94.17101480333694
 30
0.0
  0
VERTEX
  5
57
330
41
100
AcDbEntity
  8
Cut
 62
   179
420
  1842203
370
     9
100
AcDbVertex
100
AcDb2dVertex
 10
4.019409936437389
 20
-36.3567629418089
 30
0.0
  0
VERTEX
  5
58
330
41
100
AcDbEntity
  8
Cut
 62
   179
420
  1842203
370
     9
100
AcDbVertex
100
AcDb2dVertex
 10
11.42787245899934
 20
-46.58712470818578
 30
0.0
  0
VERTEX
  5
59
330
41
100
AcDbEntity
  8
Cut
 62
   179
420
  1842203
370
     9
100
AcDbVertex
100
AcDb2dVertex
 10
53.2908425887785
 20
-69.16490248031911
 30
0.0
  0
VERTEX
  5
5A
330
41
100
AcDbEntity
  8
Cut
 62
   179
420
  1842203
370
     9
100
AcDbVertex
100
AcDb2dVertex
 10
67.04758256201065
 20
-69.75298027965125
 30
0.0
  0
VERTEX
  5
5B
330
41
100
AcDbEntity
  8
Cut
 62
   179
420
  1842203
370
     9
100
AcDbVertex
100
AcDb2dVertex
 10
67.04781941232525
 20
-69.75351857582082
 30
0.0
  0
VERTEX
  5
5C
330
41
100
AcDbEntity
  8
Cut
 62
   179
420
  1842203
370
     9
100
AcDbVertex
100
AcDb2dVertex
 10
67.04833617664805
 20
-69.75302334334482
 30
0.0
  0
SEQEND
  5
5D
330
41
100
AcDbEntity
  8
Cut
 62
   179
420
  1842203
370
     9
  0
INSERT
  5
5F
330
1F
100
AcDbEntity
  8
Cut
100
AcDbBlockReference
  2
block 2
 10
0.0
 20
0.0
 30
0.0
  0
INSERT
  5
6F
330
1F
100
AcDbEntity
  8
Cut
100
AcDbBlockReference
  2
block 3
 10
0.0
 20
0.0
 30
0.0
  0
INSERT
  5
7E
330
1F
100
AcDbEntity
  8
Cut
100
AcDbBlockReference
  2
block 4
 10
0.0
 20
0.0
 30
0.0
  0
INSERT
  5
8E
330
1F
100
AcDbEntity
  8
Cut
100
AcDbBlockReference
  2
block 5
 10
0.0
 20
0.0
 30
0.0
  0
POLYLINE
  5
9D
330
1F
100
AcDbEntity
  8
Ritzen
 62
    12
420
 14877971
370
     9
100
AcDb2dPolyline
 66
     1
 10
0.0
 20
0.0
 30
0.0
  0
VERTEX
  5
9E
330
9D
100
AcDbEntity
  8
Ritzen
 62
    12
420
 14877971
370
     9
100
AcDbVertex
100
AcDb2dVertex
 10
4.019409936437069
 20
94.17102198062005
 30
0.0
  0
VERTEX
  5
9F
330
9D
100
AcDbEntity
  8
Ritzen
 62
    12
420
 14877971
370
     9
100
AcDbVertex
100
AcDb2dVertex
 10
133.8621950398813
 20
80.81608062291916
 30
0.0
  0
VERTEX
  5
A0
330
9D
100
AcDbEntity
  8
Ritzen
 62
    12
420
 14877971
370
     9
100
AcDbVertex
100
AcDb2dVertex
 10
160.6338167372897
 20
14.7005426145457
 30
0.0
  0
VERTEX
  5
A1
330
9D
100
AcDbEntity
  8
Ritzen
 62
    12
420
 14877971
370
     9
100
AcDbVertex
100
AcDb2dVertex
 10
4.019409936437069
 20
94.17102198062005
 30
0.0
  0
SEQEND
  5
A2
330
9D
100
AcDbEntity
  8
Ritzen
 62
    12
420
 14877971
370
     9
  0
POLYLINE
  5
A3
330
1F
100
AcDbEntity
  8
Ritzen
 62
    12
420
 14877971
370
     9
100
AcDb2dPolyline
 66
     1
 10
0.0
 20
0.0
 30
0.0
  0
VERTEX
  5
A4
330
A3
100
AcDbEntity
  8
Ritzen
 62
    12
420
 14877971
370
     9
100
AcDbVertex
100
AcDb2dVertex
 10
4.019409936437389
 20
-36.3567629418089
 30
0.0
  0
VERTEX
  5
A5
330
A3
100
AcDbEntity
  8
Ritzen
 62
    12
420
 14877971
370
     9
100
AcDbVertex
100
AcDb2dVertex
 10
67.04885294097083
 20
-69.75252811086881
 30
0.0
  0
VERTEX
  5
A6
330
A3
100
AcDbEntity
  8
Ritzen
 62
    12
420
 14877971
370
     9
100
AcDbVertex
100
AcDb2dVertex
 10
4.019409936437069
 20
94.17102198062005
 30
0.0
  0
VERTEX
  5
A7
330
A3
100
AcDbEntity
  8
Ritzen
 62
    12
420
 14877971
370
     9
100
AcDbVertex
100
AcDb2dVertex
 10
91.46191920548357
 20
-2.72606379250173
 30
0.0
  0
VERTEX
  5
A8
330
A3
100
AcDbEntity
  8
Ritzen
 62
    12
420
 14877971
370
     9
100
AcDbVertex
100
AcDb2dVertex
 10
160.6338167372897
 20
14.7005426145457
 30
0.0
  0
SEQEND
  5
A9
330
A3
100
AcDbEntity
  8
Ritzen
 62
    12
420
 14877971
370
     9
  0
POLYLINE
  5
AA
330
1F
100
AcDbEntity
  8
Ritzen
 62
    12
420
 14877971
370
     9
100
AcDb2dPolyline
 66
     1
 10
0.0
 20
0.0
 30
0.0
  0
VERTEX
  5
AB
330
AA
100
AcDbEntity
  8
Ritzen
 62
    12
420
 14877971
370
     9
100
AcDbVertex
100
AcDb2dVertex
 10
91.46191920548357
 20
-2.72606379250173
 30
0.0
  0
VERTEX
  5
AC
330
AA
100
AcDbEntity
  8
Ritzen
 62
    12
420
 14877971
370
     9
100
AcDbVertex
100
AcDb2dVertex
 10
67.04885294097083
 20
-69.75252811086881
 30
0.0
  0
SEQEND
  5
AD
330
AA
100
AcDbEntity
  8
Ritzen
 62
    12
420
 14877971
370
     9
  0
ENDSEC
  0
SECTION
  2
OBJECTS
  0
DICTIONARY
  5
C
330
0
100
AcDbDictionary
281
     1
  3
ACAD_GROUP
350
D
  3
ACAD_LAYOUT
350
1A
  3
ACAD_MATERIAL
350
3B
  3
ACAD_MLEADERSTYLE
350
AF
  3
ACAD_MLINESTYLE
350
17
  3
ACAD_PLOTSETTINGS
350
19
  3
ACAD_PLOTSTYLENAME
350
E
  3
ACAD_TABLESTYLE
350
AE
  3
ACAD_VISUALSTYLE
350
2A
  0
SUN
  5
3F
330
29
100
AcDbSun
 90
        1
290
     0
 63
     7
421
 16777215
 40
1.0
291
     1
 91
  2455826
 92
 54000000
292
     0
 70
     2
 71
   256
280
     1
  0
DICTIONARY
  5
D
102
{ACAD_REACTORS
330
C
102
}
330
C
100
AcDbDictionary
281
     1
  0
DICTIONARY
  5
1A
102
{ACAD_REACTORS
330
C
102
}
330
C
100
AcDbDictionary
281
     1
  3
Layout1
350
1E
  3
Layout2
350
26
  3
Model
350
22
  0
DICTIONARY
  5
3B
102
{ACAD_REACTORS
330
C
102
}
330
C
100
AcDbDictionary
281
     1
  3
ByBlock
350
3D
  3
ByLayer
350
3C
  3
Global
350
3E
  0
DICTIONARY
  5
AF
102
{ACAD_REACTORS
330
C
102
}
330
C
100
AcDbDictionary
281
     1
  0
DICTIONARY
  5
17
102
{ACAD_REACTORS
330
C
102
}
330
C
100
AcDbDictionary
281
     1
  3
Standard
350
18
  0
DICTIONARY
  5
19
102
{ACAD_REACTORS
330
C
102
}
330
C
100
AcDbDictionary
281
     1
  0
ACDBDICTIONARYWDFLT
  5
E
102
{ACAD_REACTORS
330
C
102
}
330
C
100
AcDbDictionary
281
     1
  3
Normal
350
F
100
AcDbDictionaryWithDefault
340
F
  0
DICTIONARY
  5
AE
102
{ACAD_REACTORS
330
C
102
}
330
C
100
AcDbDictionary
281
     1
  0
DICTIONARY
  5
2A
102
{ACAD_REACTORS
330
C
102
}
330
C
100
AcDbDictionary
281
     1
  3
2dWireframe
350
2F
  3
3D Hidden
350
31
  3
3dWireframe
350
30
  3
Basic
350
32
  3
Brighten
350
36
  3
ColorChange
350
3A
  3
Conceptual
350
34
  3
Dim
350
35
  3
Facepattern
350
39
  3
Flat
350
2B
  3
FlatWithEdges
350
2C
  3
Gouraud
350
2D
  3
GouraudWithEdges
350
2E
  3
Linepattern
350
38
  3
Realistic
350
33
  3
Thicken
350
37
  0
LAYOUT
  5
1E
102
{ACAD_REACTORS
330
1A
102
}
330
1A
100
AcDbPlotSettings
  1

  2
none_device
  4

  6

 40
0.0
 41
0.0
 42
0.0
 43
0.0
 44
0.0
 45
0.0
 46
0.0
 47
0.0
 48
0.0
 49
0.0
140
0.0
141
0.0
142
1.0
143
1.0
 70
   688
 72
     0
 73
     0
 74
     5
  7

 75
    16
 76
     0
 77
     2
 78
   300
147
1.0
148
0.0
149
0.0
100
AcDbLayout
  1
Layout1
 70
     1
 71
     1
 10
0.0
 20
0.0
 11
12.0
 21
9.0
 12
0.0
 22
0.0
 32
0.0
 14
1.000000000000000E+20
 24
1.000000000000000E+20
 34
1.000000000000000E+20
 15
-1.000000000000000E+20
 25
-1.000000000000000E+20
 35
-1.000000000000000E+20
146
0.0
 13
0.0
 23
0.0
 33
0.0
 16
1.0
 26
0.0
 36
0.0
 17
0.0
 27
1.0
 37
0.0
 76
     0
330
1B
  0
LAYOUT
  5
26
102
{ACAD_REACTORS
330
1A
102
}
330
1A
100
AcDbPlotSettings
  1

  2
none_device
  4

  6

 40
0.0
 41
0.0
 42
0.0
 43
0.0
 44
0.0
 45
0.0
 46
0.0
 47
0.0
 48
0.0
 49
0.0
140
0.0
141
0.0
142
1.0
143
1.0
 70
   688
 72
     0
 73
     0
 74
     5
  7

 75
    16
 76
     0
 77
     2
 78
   300
147
1.0
148
0.0
149
0.0
100
AcDbLayout
  1
Layout2
 70
     1
 71
     2
 10
0.0
 20
0.0
 11
0.0
 21
0.0
 12
0.0
 22
0.0
 32
0.0
 14
0.0
 24
0.0
 34
0.0
 15
0.0
 25
0.0
 35
0.0
146
0.0
 13
0.0
 23
0.0
 33
0.0
 16
1.0
 26
0.0
 36
0.0
 17
0.0
 27
1.0
 37
0.0
 76
     0
330
23
  0
LAYOUT
  5
22
102
{ACAD_REACTORS
330
1A
102
}
330
1A
100
AcDbPlotSettings
  1

  2
none_device
  4

  6

 40
0.0
 41
0.0
 42
0.0
 43
0.0
 44
0.0
 45
0.0
 46
0.0
 47
0.0
 48
0.0
 49
0.0
140
0.0
141
0.0
142
1.0
143
1.0
 70
  1712
 72
     0
 73
     0
 74
     0
  7

 75
     0
 76
     0
 77
     2
 78
   300
147
1.0
148
0.0
149
0.0
100
AcDbLayout
  1
Model
 70
     1
 71
     0
 10
0.0
 20
0.0
 11
12.0
 21
9.0
 12
0.0
 22
0.0
 32
0.0
 14
1.000000000000000E+20
 24
1.000000000000000E+20
 34
1.000000000000000E+20
 15
-1.000000000000000E+20
 25
-1.000000000000000E+20
 35
-1.000000000000000E+20
146
0.0
 13
0.0
 23
0.0
 33
0.0
 16
1.0
 26
0.0
 36
0.0
 17
0.0
 27
1.0
 37
0.0
 76
     0
330
1F
331
29
  0
MATERIAL
  5
3D
102
{ACAD_REACTORS
330
3B
102
}
330
3B
100
AcDbMaterial
  1
ByBlock
 72
     1
 94
      127
  0
MATERIAL
  5
3C
102
{ACAD_REACTORS
330
3B
102
}
330
3B
100
AcDbMaterial
  1
ByLayer
 72
     1
 94
      127
  0
MATERIAL
  5
3E
102
{ACAD_REACTORS
330
3B
102
}
330
3B
100
AcDbMaterial
  1
Global
 72
     1
 94
      127
  0
MLINESTYLE
  5
18
102
{ACAD_REACTORS
330
17
102
}
330
17
100
AcDbMlineStyle
  2
Standard
 70
     0
  3

 62
   256
 51
90.0
 52
90.0
 71
     2
 49
0.5
 62
   256
  6
BYLAYER
 49
-0.5
 62
   256
  6
BYLAYER
  0
ACDBPLACEHOLDER
  5
F
102
{ACAD_REACTORS
330
E
102
}
330
E
  0
VISUALSTYLE
  5
2F
102
{ACAD_REACTORS
330
2A
102
}
330
2A
100
AcDbVisualStyle
  2
2dWireframe
 70
     4
177
     2
291
     0
 71
     0
176
     1
 72
     2
176
     1
 73
     0
176
     1
 90
        0
176
     1
 40
-0.6
176
     1
 41
-30.0
176
     1
 62
     5
 63
     7
421
 16777215
176
     1
 74
     1
176
     1
 91
        4
176
     1
 64
     7
176
     1
 65
   257
176
     1
 75
     1
176
     1
175
     1
176
     1
 42
1.0
176
     1
 92
        0
176
     1
 66
   257
176
     1
 43
1.0
176
     1
 76
     1
176
     1
 77
     6
176
     1
 78
     2
176
     1
 67
     7
176
     1
 79
     5
176
     1
170
     0
176
     1
171
     0
176
     1
290
     0
176
     1
 93
        1
176
     1
 44
0.0
176
     1
173
     0
176
     1
  0
VISUALSTYLE
  5
31
102
{ACAD_REACTORS
330
2A
102
}
330
2A
100
AcDbVisualStyle
  2
3D Hidden
 70
     6
177
     2
291
     0
 71
     1
176
     1
 72
     2
176
     1
 73
     2
176
     1
 90
        0
176
     1
 40
-0.6
176
     1
 41
-30.0
176
     1
 62
     5
 63
     7
421
 16777215
176
     1
 74
     2
176
     1
 91
        2
176
     1
 64
     7
176
     1
 65
   257
176
     1
 75
     2
176
     1
175
     1
176
     1
 42
40.0
176
     1
 92
        0
176
     1
 66
   257
176
     1
 43
1.0
176
     1
 76
     1
176
     1
 77
     6
176
     1
 78
     2
176
     1
 67
     7
176
     1
 79
     3
176
     1
170
     0
176
     1
171
     0
176
     1
290
     0
176
     1
 93
        1
176
     1
 44
0.0
176
     1
173
     0
176
     1
  0
VISUALSTYLE
  5
30
102
{ACAD_REACTORS
330
2A
102
}
330
2A
100
AcDbVisualStyle
  2
3dWireframe
 70
     5
177
     2
291
     0
 71
     0
176
     1
 72
     2
176
     1
 73
     0
176
     1
 90
        0
176
     1
 40
-0.6
176
     1
 41
-30.0
176
     1
 62
     5
 63
     7
421
 16777215
176
     1
 74
     1
176
     1
 91
        4
176
     1
 64
     7
176
     1
 65
   257
176
     1
 75
     1
176
     1
175
     1
176
     1
 42
1.0
176
     1
 92
        0
176
     1
 66
   257
176
     1
 43
1.0
176
     1
 76
     1
176
     1
 77
     6
176
     1
 78
     2
176
     1
 67
     7
176
     1
 79
     5
176
     1
170
     0
176
     1
171
     0
176
     1
290
     0
176
     1
 93
        1
176
     1
 44
0.0
176
     1
173
     0
176
     1
  0
VISUALSTYLE
  5
32
102
{ACAD_REACTORS
330
2A
102
}
330
2A
100
AcDbVisualStyle
  2
Basic
 70
     7
177
     2
291
     1
 71
     1
176
     1
 72
     0
176
     1
 73
     1
176
     1
 90
        0
176
     1
 40
-0.6
176
     1
 41
-30.0
176
     1
 62
     5
 63
     7
421
 16777215
176
     1
 74
     0
176
     1
 91
        4
176
     1
 64
     7
176
     1
 65
   257
176
     1
 75
     1
176
     1
175
     1
176
     1
 42
1.0
176
     1
 92
        8
176
     1
 66
     7
176
     1
 43
1.0
176
     1
 76
     1
176
     1
 77
     6
176
     1
 78
     2
176
     1
 67
     7
176
     1
 79
     5
176
     1
170
     0
176
     1
171
     0
176
     1
290
     0
176
     1
 93
        1
176
     1
 44
0.0
176
     1
173
     0
176
     1
  0
VISUALSTYLE
  5
36
102
{ACAD_REACTORS
330
2A
102
}
330
2A
100
AcDbVisualStyle
  2
Brighten
 70
    12
177
     2
291
     1
 71
     2
176
     1
 72
     2
176
     1
 73
     0
176
     1
 90
        0
176
     1
 40
-0.6
176
     1
 41
-30.0
176
     1
 62
     5
 63
     7
421
 16777215
176
     1
 74
     1
176
     1
 91
        4
176
     1
 64
     7
176
     1
 65
   257
176
     1
 75
     1
176
     1
175
     1
176
     1
 42
1.0
176
     1
 92
        8
176
     1
 66
     7
176
     1
 43
1.0
176
     1
 76
     1
176
     1
 77
     6
176
     1
 78
     2
176
     1
 67
     7
176
     1
 79
     5
176
     1
170
     0
176
     1
171
     0
176
     1
290
     0
176
     1
 93
        1
176
     1
 44
50.0
176
     1
173
     0
176
     1
  0
VISUALSTYLE
  5
3A
102
{ACAD_REACTORS
330
2A
102
}
330
2A
100
AcDbVisualStyle
  2
ColorChange
 70
    16
177
     2
291
     1
 71
     2
176
     1
 72
     2
176
     1
 73
     3
176
     1
 90
        0
176
     1
 40
-0.6
176
     1
 41
-30.0
176
     1
 62
     5
 63
     8
421
  8421504
176
     1
 74
     1
176
     1
 91
        4
176
     1
 64
     7
176
     1
 65
   257
176
     1
 75
     1
176
     1
175
     1
176
     1
 42
1.0
176
     1
 92
        8
176
     1
 66
     8
424
  8421504
176
     1
 43
1.0
176
     1
 76
     1
176
     1
 77
     6
176
     1
 78
     2
176
     1
 67
     7
176
     1
 79
     5
176
     1
170
     0
176
     1
171
     0
176
     1
290
     0
176
     1
 93
        1
176
     1
 44
0.0
176
     1
173
     0
176
     1
  0
VISUALSTYLE
  5
34
102
{ACAD_REACTORS
330
2A
102
}
330
2A
100
AcDbVisualStyle
  2
Conceptual
 70
     9
177
     2
291
     0
 71
     3
176
     1
 72
     2
176
     1
 73
     0
176
     1
 90
        0
176
     1
 40
-0.6
176
     1
 41
-30.0
176
     1
 62
     5
 63
     7
421
 16777215
176
     1
 74
     2
176
     1
 91
        2
176
     1
 64
     7
176
     1
 65
   257
176
     1
 75
     1
176
     1
175
     1
176
     1
 42
40.0
176
     1
 92
        8
176
     1
 66
     7
176
     1
 43
1.0
176
     1
 76
     1
176
     1
 77
     6
176
     1
 78
     2
176
     1
 67
     7
176
     1
 79
     3
176
     1
170
     0
176
     1
171
     0
176
     1
290
     0
176
     1
 93
        1
176
     1
 44
0.0
176
     1
173
     0
176
     1
  0
VISUALSTYLE
  5
35
102
{ACAD_REACTORS
330
2A
102
}
330
2A
100
AcDbVisualStyle
  2
Dim
 70
    11
177
     2
291
     1
 71
     2
176
     1
 72
     2
176
     1
 73
     0
176
     1
 90
        0
176
     1
 40
-0.6
176
     1
 41
-30.0
176
     1
 62
     5
 63
     7
421
 16777215
176
     1
 74
     1
176
     1
 91
        4
176
     1
 64
     7
176
     1
 65
   257
176
     1
 75
     1
176
     1
175
     1
176
     1
 42
1.0
176
     1
 92
        8
176
     1
 66
     7
176
     1
 43
1.0
176
     1
 76
     1
176
     1
 77
     6
176
     1
 78
     2
176
     1
 67
     7
176
     1
 79
     5
176
     1
170
     0
176
     1
171
     0
176
     1
290
     0
176
     1
 93
        1
176
     1
 44
-50.0
176
     1
173
     0
176
     1
  0
VISUALSTYLE
  5
39
102
{ACAD_REACTORS
330
2A
102
}
330
2A
100
AcDbVisualStyle
  2
Facepattern
 70
    15
177
     2
291
     1
 71
     2
176
     1
 72
     2
176
     1
 73
     0
176
     1
 90
        0
176
     1
 40
-0.6
176
     1
 41
-30.0
176
     1
 62
     5
 63
     7
421
 16777215
176
     1
 74
     1
176
     1
 91
        4
176
     1
 64
     7
176
     1
 65
   257
176
     1
 75
     1
176
     1
175
     1
176
     1
 42
1.0
176
     1
 92
        8
176
     1
 66
     7
176
     1
 43
1.0
176
     1
 76
     1
176
     1
 77
     6
176
     1
 78
     2
176
     1
 67
     7
176
     1
 79
     5
176
     1
170
     0
176
     1
171
     0
176
     1
290
     0
176
     1
 93
        1
176
     1
 44
0.0
176
     1
173
     0
176
     1
  0
VISUALSTYLE
  5
2B
102
{ACAD_REACTORS
330
2A
102
}
330
2A
100
AcDbVisualStyle
  2
Flat
 70
     0
177
     2
291
     1
 71
     2
176
     1
 72
     1
176
     1
 73
     1
176
     1
 90
        2
176
     1
 40
-0.6
176
     1
 41
30.0
176
     1
 62
     5
 63
     7
421
 16777215
176
     1
 74
     0
176
     1
 91
        4
176
     1
 64
     7
176
     1
 65
   257
176
     1
 75
     1
176
     1
175
     1
176
     1
 42
1.0
176
     1
 92
        8
176
     1
 66
     7
176
     1
 43
1.0
176
     1
 76
     1
176
     1
 77
     6
176
     1
 78
     2
176
     1
 67
     7
176
     1
 79
     5
176
     1
170
     0
176
     1
171
     0
176
     1
290
     0
176
     1
 93
       13
176
     1
 44
0.0
176
     1
173
     0
176
     1
  0
VISUALSTYLE
  5
2C
102
{ACAD_REACTORS
330
2A
102
}
330
2A
100
AcDbVisualStyle
  2
FlatWithEdges
 70
     1
177
     2
291
     1
 71
     2
176
     1
 72
     1
176
     1
 73
     1
176
     1
 90
        2
176
     1
 40
-0.6
176
     1
 41
30.0
176
     1
 62
     5
 63
     7
421
 16777215
176
     1
 74
     1
176
     1
 91
        4
176
     1
 64
     7
176
     1
 65
   257
176
     1
 75
     1
176
     1
175
     1
176
     1
 42
1.0
176
     1
 92
        0
176
     1
 66
   257
176
     1
 43
1.0
176
     1
 76
     1
176
     1
 77
     6
176
     1
 78
     2
176
     1
 67
     7
176
     1
 79
     5
176
     1
170
     0
176
     1
171
     0
176
     1
290
     0
176
     1
 93
       13
176
     1
 44
0.0
176
     1
173
     0
176
     1
  0
VISUALSTYLE
  5
2D
102
{ACAD_REACTORS
330
2A
102
}
330
2A
100
AcDbVisualStyle
  2
Gouraud
 70
     2
177
     2
291
     1
 71
     2
176
     1
 72
     2
176
     1
 73
     1
176
     1
 90
        2
176
     1
 40
-0.6
176
     1
 41
30.0
176
     1
 62
     5
 63
     7
421
 16777215
176
     1
 74
     0
176
     1
 91
        4
176
     1
 64
     7
176
     1
 65
   257
176
     1
 75
     1
176
     1
175
     1
176
     1
 42
1.0
176
     1
 92
        0
176
     1
 66
     7
176
     1
 43
1.0
176
     1
 76
     1
176
     1
 77
     6
176
     1
 78
     2
176
     1
 67
     7
176
     1
 79
     5
176
     1
170
     0
176
     1
171
     0
176
     1
290
     0
176
     1
 93
       13
176
     1
 44
0.0
176
     1
173
     0
176
     1
  0
VISUALSTYLE
  5
2E
102
{ACAD_REACTORS
330
2A
102
}
330
2A
100
AcDbVisualStyle
  2
GouraudWithEdges
 70
     3
177
     2
291
     1
 71
     2
176
     1
 72
     2
176
     1
 73
     1
176
     1
 90
        2
176
     1
 40
-0.6
176
     1
 41
30.0
176
     1
 62
     5
 63
     7
421
 16777215
176
     1
 74
     1
176
     1
 91
        4
176
     1
 64
     7
176
     1
 65
   257
176
     1
 75
     1
176
     1
175
     1
176
     1
 42
1.0
176
     1
 92
        0
176
     1
 66
   257
176
     1
 43
1.0
176
     1
 76
     1
176
     1
 77
     6
176
     1
 78
     2
176
     1
 67
     7
176
     1
 79
     5
176
     1
170
     0
176
     1
171
     0
176
     1
290
     0
176
     1
 93
       13
176
     1
 44
0.0
176
     1
173
     0
176
     1
  0
VISUALSTYLE
  5
38
102
{ACAD_REACTORS
330
2A
102
}
330
2A
100
AcDbVisualStyle
  2
Linepattern
 70
    14
177
     2
291
     1
 71
     2
176
     1
 72
     2
176
     1
 73
     0
176
     1
 90
        0
176
     1
 40
-0.6
176
     1
 41
-30.0
176
     1
 62
     5
 63
     7
421
 16777215
176
     1
 74
     1
176
     1
 91
        4
176
     1
 64
     7
176
     1
 65
   257
176
     1
 75
     7
176
     1
175
     7
176
     1
 42
1.0
176
     1
 92
        8
176
     1
 66
     7
176
     1
 43
1.0
176
     1
 76
     1
176
     1
 77
     6
176
     1
 78
     2
176
     1
 67
     7
176
     1
 79
     5
176
     1
170
     0
176
     1
171
     0
176
     1
290
     0
176
     1
 93
        1
176
     1
 44
0.0
176
     1
173
     0
176
     1
  0
VISUALSTYLE
  5
33
102
{ACAD_REACTORS
330
2A
102
}
330
2A
100
AcDbVisualStyle
  2
Realistic
 70
     8
177
     2
291
     0
 71
     2
176
     1
 72
     2
176
     1
 73
     0
176
     1
 90
        0
176
     1
 40
-0.6
176
     1
 41
-30.0
176
     1
 62
     5
 63
     7
421
 16777215
176
     1
 74
     1
176
     1
 91
        0
176
     1
 64
     7
176
     1
 65
   257
176
     1
 75
     1
176
     1
175
     1
176
     1
 42
1.0
176
     1
 92
        8
176
     1
 66
     8
424
  7895160
176
     1
 43
1.0
176
     1
 76
     1
176
     1
 77
     6
176
     1
 78
     2
176
     1
 67
     7
176
     1
 79
     5
176
     1
170
     0
176
     1
171
     0
176
     1
290
     0
176
     1
 93
       13
176
     1
 44
0.0
176
     1
173
     0
176
     1
  0
VISUALSTYLE
  5
37
102
{ACAD_REACTORS
330
2A
102
}
330
2A
100
AcDbVisualStyle
  2
Thicken
 70
    13
177
     2
291
     1
 71
     2
176
     1
 72
     2
176
     1
 73
     0
176
     1
 90
        0
176
     1
 40
-0.6
176
     1
 41
-30.0
176
     1
 62
     5
 63
     7
421
 16777215
176
     1
 74
     1
176
     1
 91
        4
176
     1
 64
     7
176
     1
 65
   257
176
     1
 75
     1
176
     1
175
     1
176
     1
 42
1.0
176
     1
 92
       12
176
     1
 66
     7
176
     1
 43
1.0
176
     1
 76
     1
176
     1
 77
     6
176
     1
 78
     2
176
     1
 67
     7
176
     1
 79
     5
176
     1
170
     0
176
     1
171
     0
176
     1
290
     0
176
     1
 93
        1
176
     1
 44
0.0
176
     1
173
     0
176
     1
  0
ENDSEC
  0
EOF
