  0
SECTION
  2
HEADER
  9
$ACADVER
  1
AC1024
  9
$ACADMAINTVER
 70
     6
  9
$DWGCODEPAGE
  3
UNDEFINED
  9
$INSBASE
 10
0.0
 20
0.0
 30
0.0
  9
$EXTMIN
 10
1.000000000000000E+20
 20
1.000000000000000E+20
 30
1.000000000000000E+20
  9
$EXTMAX
 10
-1.000000000000000E+20
 20
-1.000000000000000E+20
 30
-1.000000000000000E+20
  9
$LIMMIN
 10
0.0
 20
0.0
  9
$LIMMAX
 10
12.0
 20
9.0
  9
$ORTHOMODE
 70
     0
  9
$REGENMODE
 70
     1
  9
$FILLMODE
 70
     1
  9
$QTEXTMODE
 70
     0
  9
$MIRRTEXT
 70
     1
  9
$LTSCALE
 40
1.0
  9
$ATTMODE
 70
     1
  9
$TEXTSIZE
 40
0.2
  9
$TRACEWID
 40
0.05
  9
$TEXTSTYLE
  7
Standard
  9
$CLAYER
  8
0
  9
$CELTYPE
  6
ByLayer
  9
$CECOLOR
 62
   256
  9
$CELTSCALE
 40
1.0
  9
$DISPSILH
 70
     0
  9
$DIMSCALE
 40
1.0
  9
$DIMASZ
 40
0.18
  9
$DIMEXO
 40
0.0625
  9
$DIMDLI
 40
0.38
  9
$DIMRND
 40
0.0
  9
$DIMDLE
 40
0.0
  9
$DIMEXE
 40
0.18
  9
$DIMTP
 40
0.0
  9
$DIMTM
 40
0.0
  9
$DIMTXT
 40
0.18
  9
$DIMCEN
 40
0.09
  9
$DIMTSZ
 40
0.0
  9
$DIMTOL
 70
     0
  9
$DIMLIM
 70
     0
  9
$DIMTIH
 70
     1
  9
$DIMTOH
 70
     1
  9
$DIMSE1
 70
     0
  9
$DIMSE2
 70
     0
  9
$DIMTAD
 70
     0
  9
$DIMZIN
 70
     0
  9
$DIMBLK
  1

  9
$DIMASO
 70
     1
  9
$DIMSHO
 70
     1
  9
$DIMPOST
  1

  9
$DIMAPOST
  1

  9
$DIMALT
 70
     0
  9
$DIMALTD
 70
     2
  9
$DIMALTF
 40
25.4
  9
$DIMLFAC
 40
1.0
  9
$DIMTOFL
 70
     0
  9
$DIMTVP
 40
0.0
  9
$DIMTIX
 70
     0
  9
$DIMSOXD
 70
     0
  9
$DIMSAH
 70
     0
  9
$DIMBLK1
  1

  9
$DIMBLK2
  1

  9
$DIMSTYLE
  2
Standard
  9
$DIMCLRD
 70
     0
  9
$DIMCLRE
 70
     0
  9
$DIMCLRT
 70
     0
  9
$DIMTFAC
 40
1.0
  9
$DIMGAP
 40
0.09
  9
$DIMJUST
 70
     0
  9
$DIMSD1
 70
     0
  9
$DIMSD2
 70
     0
  9
$DIMTOLJ
 70
     1
  9
$DIMTZIN
 70
     0
  9
$DIMALTZ
 70
     0
  9
$DIMALTTZ
 70
     0
  9
$DIMUPT
 70
     0
  9
$DIMDEC
 70
     4
  9
$DIMTDEC
 70
     4
  9
$DIMALTU
 70
     2
  9
$DIMALTTD
 70
     2
  9
$DIMTXSTY
  7
Standard
  9
$DIMAUNIT
 70
     0
  9
$DIMADEC
 70
     0
  9
$DIMALTRND
 40
0.0
  9
$DIMAZIN
 70
     0
  9
$DIMDSEP
 70
    46
  9
$DIMATFIT
 70
     3
  9
$DIMFRAC
 70
     0
  9
$DIMLDRBLK
  1

  9
$DIMLUNIT
 70
     2
  9
$DIMLWD
 70
    -2
  9
$DIMLWE
 70
    -2
  9
$DIMTMOVE
 70
     0
  9
$DIMFXL
 40
1.0
  9
$DIMFXLON
 70
     0
  9
$DIMJOGANG
 40
0.7853981633974483
  9
$DIMTFILL
 70
     0
  9
$DIMTFILLCLR
 70
     0
  9
$DIMARCSYM
 70
     0
  9
$DIMLTYPE
  6

  9
$DIMLTEX1
  6

  9
$DIMLTEX2
  6

  9
$DIMTXTDIRECTION
 70
     0
  9
$LUNITS
 70
     2
  9
$LUPREC
 70
     4
  9
$SKETCHINC
 40
0.1
  9
$FILLETRAD
 40
0.5
  9
$AUNITS
 70
     0
  9
$AUPREC
 70
     0
  9
$MENU
  1
.
  9
$ELEVATION
 40
0.0
  9
$PELEVATION
 40
0.0
  9
$THICKNESS
 40
0.0
  9
$LIMCHECK
 70
     0
  9
$CHAMFERA
 40
0.5
  9
$CHAMFERB
 40
0.5
  9
$CHAMFERC
 40
1.0
  9
$CHAMFERD
 40
0.0
  9
$SKPOLY
 70
     0
  9
$TDCREATE
 40
2458103.897430544
  9
$TDUCREATE
 40
2458103.855763889
  9
$TDUPDATE
 40
2458103.897430544
  9
$TDUUPDATE
 40
2458103.855763889
  9
$TDINDWG
 40
0.0000000116
  9
$TDUSRTIMER
 40
0.0000000116
  9
$USRTIMER
 70
     1
  9
$ANGBASE
 50
0.0
  9
$ANGDIR
 70
     0
  9
$PDMODE
 70
     0
  9
$PDSIZE
 40
0.0
  9
$PLINEWID
 40
0.0
  9
$SPLFRAME
 70
     0
  9
$SPLINETYPE
 70
     6
  9
$SPLINESEGS
 70
     8
  9
$HANDSEED
  5
190
  9
$SURFTAB1
 70
     6
  9
$SURFTAB2
 70
     6
  9
$SURFTYPE
 70
     6
  9
$SURFU
 70
     6
  9
$SURFV
 70
     6
  9
$UCSBASE
  2

  9
$UCSNAME
  2

  9
$UCSORG
 10
0.0
 20
0.0
 30
0.0
  9
$UCSXDIR
 10
1.0
 20
0.0
 30
0.0
  9
$UCSYDIR
 10
0.0
 20
1.0
 30
0.0
  9
$UCSORTHOREF
  2

  9
$UCSORTHOVIEW
 70
     0
  9
$UCSORGTOP
 10
0.0
 20
0.0
 30
0.0
  9
$UCSORGBOTTOM
 10
0.0
 20
0.0
 30
0.0
  9
$UCSORGLEFT
 10
0.0
 20
0.0
 30
0.0
  9
$UCSORGRIGHT
 10
0.0
 20
0.0
 30
0.0
  9
$UCSORGFRONT
 10
0.0
 20
0.0
 30
0.0
  9
$UCSORGBACK
 10
0.0
 20
0.0
 30
0.0
  9
$PUCSBASE
  2

  9
$PUCSNAME
  2

  9
$PUCSORG
 10
0.0
 20
0.0
 30
0.0
  9
$PUCSXDIR
 10
1.0
 20
0.0
 30
0.0
  9
$PUCSYDIR
 10
0.0
 20
1.0
 30
0.0
  9
$PUCSORTHOREF
  2

  9
$PUCSORTHOVIEW
 70
     0
  9
$PUCSORGTOP
 10
0.0
 20
0.0
 30
0.0
  9
$PUCSORGBOTTOM
 10
0.0
 20
0.0
 30
0.0
  9
$PUCSORGLEFT
 10
0.0
 20
0.0
 30
0.0
  9
$PUCSORGRIGHT
 10
0.0
 20
0.0
 30
0.0
  9
$PUCSORGFRONT
 10
0.0
 20
0.0
 30
0.0
  9
$PUCSORGBACK
 10
0.0
 20
0.0
 30
0.0
  9
$USERI1
 70
     0
  9
$USERI2
 70
     0
  9
$USERI3
 70
     0
  9
$USERI4
 70
     0
  9
$USERI5
 70
     0
  9
$USERR1
 40
0.0
  9
$USERR2
 40
0.0
  9
$USERR3
 40
0.0
  9
$USERR4
 40
0.0
  9
$USERR5
 40
0.0
  9
$WORLDVIEW
 70
     1
  9
$SHADEDGE
 70
     3
  9
$SHADEDIF
 70
    70
  9
$TILEMODE
 70
     1
  9
$MAXACTVP
 70
    64
  9
$PINSBASE
 10
0.0
 20
0.0
 30
0.0
  9
$PLIMCHECK
 70
     0
  9
$PEXTMIN
 10
1.000000000000000E+20
 20
1.000000000000000E+20
 30
1.000000000000000E+20
  9
$PEXTMAX
 10
-1.000000000000000E+20
 20
-1.000000000000000E+20
 30
-1.000000000000000E+20
  9
$PLIMMIN
 10
0.0
 20
0.0
  9
$PLIMMAX
 10
12.0
 20
9.0
  9
$UNITMODE
 70
     0
  9
$VISRETAIN
 70
     1
  9
$PLINEGEN
 70
     0
  9
$PSLTSCALE
 70
     1
  9
$TREEDEPTH
 70
  3020
  9
$CMLSTYLE
  2
Standard
  9
$CMLJUST
 70
     0
  9
$CMLSCALE
 40
1.0
  9
$PROXYGRAPHICS
 70
     1
  9
$MEASUREMENT
 70
     0
  9
$CELWEIGHT
370
    -1
  9
$ENDCAPS
280
     0
  9
$JOINSTYLE
280
     0
  9
$LWDISPLAY
290
     1
  9
$INSUNITS
 70
     1
  9
$HYPERLINKBASE
  1

  9
$STYLESHEET
  1

  9
$XEDIT
290
     1
  9
$CEPSNTYPE
380
     0
  9
$PSTYLEMODE
290
     1
  9
$FINGERPRINTGUID
  2
{0C87E13E-F9D7-6B59-0D26-6DF19546A12C}
  9
$VERSIONGUID
  2
{FAEB1C32-E019-11D5-929B-00C0DF256EC4}
  9
$EXTNAMES
290
     1
  9
$PSVPSCALE
 40
0.0
  9
$OLESTARTUP
290
     0
  9
$SORTENTS
280
   127
  9
$INDEXCTL
280
     0
  9
$HIDETEXT
280
     1
  9
$XCLIPFRAME
280
     2
  9
$HALOGAP
280
     0
  9
$OBSCOLOR
 70
   257
  9
$OBSLTYPE
280
     0
  9
$INTERSECTIONDISPLAY
280
     0
  9
$INTERSECTIONCOLOR
 70
   257
  9
$DIMASSOC
280
     2
  9
$PROJECTNAME
  1

  9
$CAMERADISPLAY
290
     0
  9
$LENSLENGTH
 40
50.0
  9
$CAMERAHEIGHT
 40
0.0
  9
$STEPSPERSEC
 40
2.0
  9
$STEPSIZE
 40
6.0
  9
$3DDWFPREC
 40
2.0
  9
$PSOLWIDTH
 40
0.25
  9
$PSOLHEIGHT
 40
4.0
  9
$LOFTANG1
 40
1.570796326794897
  9
$LOFTANG2
 40
1.570796326794897
  9
$LOFTMAG1
 40
0.0
  9
$LOFTMAG2
 40
0.0
  9
$LOFTPARAM
 70
     7
  9
$LOFTNORMALS
280
     1
  9
$LATITUDE
 40
37.795
  9
$LONGITUDE
 40
-122.394
  9
$NORTHDIRECTION
 40
0.0
  9
$TIMEZONE
 70
 -8000
  9
$LIGHTGLYPHDISPLAY
280
     1
  9
$TILEMODELIGHTSYNCH
280
     1
  9
$CMATERIAL
347
3C
  9
$SOLIDHIST
280
     1
  9
$SHOWHIST
280
     1
  9
$DWFFRAME
280
     2
  9
$DGNFRAME
280
     2
  9
$REALWORLDSCALE
290
     1
  9
$INTERFERECOLOR
 62
   256
  9
$CSHADOW
280
     0
  9
$SHADOWPLANELOCATION
 40
0.0
  0
ENDSEC
  0
SECTION
  2
CLASSES
  0
CLASS
  1
ACDBDICTIONARYWDFLT
  2
AcDbDictionaryWithDefault
  3
ObjectDBX Classes
 90
        0
 91
        4
280
     0
281
     0
  0
CLASS
  1
VISUALSTYLE
  2
AcDbVisualStyle
  3
ObjectDBX Classes
 90
     4095
 91
        4
280
     0
281
     0
  0
CLASS
  1
MATERIAL
  2
AcDbMaterial
  3
ObjectDBX Classes
 90
     1153
 91
        4
280
     0
281
     0
  0
CLASS
  1
SUN
  2
AcDbSun
  3
SCENEOE
 90
     1024
 91
        4
280
     0
281
     0
  0
ENDSEC
  0
SECTION
  2
TABLES
  0
TABLE
  2
VPORT
  5
8
330
0
100
AcDbSymbolTable
 70
     1
  0
VPORT
  5
29
330
8
100
AcDbSymbolTableRecord
100
AcDbViewportTableRecord
  2
*Active
 70
     0
 10
0.0
 20
0.0
 11
1.0
 21
1.0
 12
0.0
 22
0.0
 13
0.0
 23
0.0
 14
0.5
 24
0.5
 15
0.5
 25
0.5
 16
0.0
 26
0.0
 36
1.0
 17
149.9993471847223
 27
-148.5000416295408
 37
0.0
 40
499.9999998749983
 41
0.5999973888888906
 42
50.0
 43
0.0
 44
0.0
 50
0.0
 51
0.0
 71
     0
 72
   100
 73
     1
 74
     3
 75
     0
 76
     0
 77
     0
 78
     0
281
     0
 65
     1
110
0.0
120
0.0
130
0.0
111
1.0
121
0.0
131
0.0
112
0.0
122
1.0
132
0.0
 79
     0
146
0.0
 60
     3
 61
     5
292
     1
282
     1
141
0.0
142
0.0
 63
   250
361
3F
  0
ENDTAB
  0
TABLE
  2
LTYPE
  5
5
330
0
100
AcDbSymbolTable
 70
     1
  0
LTYPE
  5
14
330
5
100
AcDbSymbolTableRecord
100
AcDbLinetypeTableRecord
  2
ByBlock
 70
     0
  3

 72
    65
 73
     0
 40
0.0
  0
LTYPE
  5
15
330
5
100
AcDbSymbolTableRecord
100
AcDbLinetypeTableRecord
  2
ByLayer
 70
     0
  3

 72
    65
 73
     0
 40
0.0
  0
LTYPE
  5
16
330
5
100
AcDbSymbolTableRecord
100
AcDbLinetypeTableRecord
  2
Continuous
 70
     0
  3
Solid line
 72
    65
 73
     0
 40
0.0
  0
ENDTAB
  0
TABLE
  2
LAYER
  5
2
330
0
100
AcDbSymbolTable
 70
     3
  0
LAYER
  5
10
330
2
100
AcDbSymbolTableRecord
100
AcDbLayerTableRecord
  2
0
 70
     0
 62
     7
  6
Continuous
370
    -3
390
F
347
3E
  0
LAYER
  5
40
330
2
100
AcDbSymbolTableRecord
100
AcDbLayerTableRecord
  2
Cut
 70
     0
 62
     7
  6
Continuous
370
    -3
390
F
347
3E
  0
LAYER
  5
169
330
2
100
AcDbSymbolTableRecord
100
AcDbLayerTableRecord
  2
Ritzen
 70
     0
 62
     7
  6
Continuous
370
    -3
390
F
347
3E
  0
ENDTAB
  0
TABLE
  2
STYLE
  5
3
330
0
100
AcDbSymbolTable
 70
     1
  0
STYLE
  5
11
330
3
100
AcDbSymbolTableRecord
100
AcDbTextStyleTableRecord
  2
Standard
 70
     0
 40
0.0
 41
1.0
 50
0.0
 71
     0
 42
0.2
  3
txt
  4

  0
ENDTAB
  0
TABLE
  2
VIEW
  5
6
330
0
100
AcDbSymbolTable
 70
     0
  0
ENDTAB
  0
TABLE
  2
UCS
  5
7
330
0
100
AcDbSymbolTable
 70
     0
  0
ENDTAB
  0
TABLE
  2
APPID
  5
9
330
0
100
AcDbSymbolTable
 70
     1
  0
APPID
  5
12
330
9
100
AcDbSymbolTableRecord
100
AcDbRegAppTableRecord
  2
ACAD
 70
     0
  0
ENDTAB
  0
TABLE
  2
DIMSTYLE
  5
A
330
0
100
AcDbSymbolTable
 70
     1
100
AcDbDimStyleTable
  0
DIMSTYLE
105
27
330
A
100
AcDbSymbolTableRecord
100
AcDbDimStyleTableRecord
  2
Standard
 70
     0
178
     0
340
11
  0
ENDTAB
  0
TABLE
  2
BLOCK_RECORD
  5
1
330
0
100
AcDbSymbolTable
 70
    13
  0
BLOCK_RECORD
  5
1F
330
1
100
AcDbSymbolTableRecord
100
AcDbBlockTableRecord
  2
*Model_Space
340
22
 70
     0
280
     1
281
     0
  0
BLOCK_RECORD
  5
1B
330
1
100
AcDbSymbolTableRecord
100
AcDbBlockTableRecord
  2
*Paper_Space
340
1E
 70
     0
280
     1
281
     0
  0
BLOCK_RECORD
  5
23
330
1
100
AcDbSymbolTableRecord
100
AcDbBlockTableRecord
  2
*Paper_Space0
340
26
 70
     0
280
     1
281
     0
  0
BLOCK_RECORD
  5
41
330
1
100
AcDbSymbolTableRecord
100
AcDbBlockTableRecord
  2
block 2
340
0
102
{BLKREFS
331
42
102
}
 70
     0
280
     1
281
     0
  0
BLOCK_RECORD
  5
53
330
1
100
AcDbSymbolTableRecord
100
AcDbBlockTableRecord
  2
block 3
340
0
102
{BLKREFS
331
54
102
}
 70
     0
280
     1
281
     0
  0
BLOCK_RECORD
  5
63
330
1
100
AcDbSymbolTableRecord
100
AcDbBlockTableRecord
  2
block 4
340
0
102
{BLKREFS
331
64
102
}
 70
     0
280
     1
281
     0
  0
BLOCK_RECORD
  5
8F
330
1
100
AcDbSymbolTableRecord
100
AcDbBlockTableRecord
  2
block 5
340
0
102
{BLKREFS
331
90
102
}
 70
     0
280
     1
281
     0
  0
BLOCK_RECORD
  5
A1
330
1
100
AcDbSymbolTableRecord
100
AcDbBlockTableRecord
  2
block 6
340
0
102
{BLKREFS
331
A2
102
}
 70
     0
280
     1
281
     0
  0
BLOCK_RECORD
  5
B1
330
1
100
AcDbSymbolTableRecord
100
AcDbBlockTableRecord
  2
block 7
340
0
102
{BLKREFS
331
B2
102
}
 70
     0
280
     1
281
     0
  0
BLOCK_RECORD
  5
DB
330
1
100
AcDbSymbolTableRecord
100
AcDbBlockTableRecord
  2
block 8
340
0
102
{BLKREFS
331
DC
102
}
 70
     0
280
     1
281
     0
  0
BLOCK_RECORD
  5
ED
330
1
100
AcDbSymbolTableRecord
100
AcDbBlockTableRecord
  2
block 9
340
0
102
{BLKREFS
331
EE
102
}
 70
     0
280
     1
281
     0
  0
BLOCK_RECORD
  5
FE
330
1
100
AcDbSymbolTableRecord
100
AcDbBlockTableRecord
  2
block 10
340
0
102
{BLKREFS
331
FF
102
}
 70
     0
280
     1
281
     0
  0
BLOCK_RECORD
  5
121
330
1
100
AcDbSymbolTableRecord
100
AcDbBlockTableRecord
  2
block 11
340
0
102
{BLKREFS
331
122
102
}
 70
     0
280
     1
281
     0
  0
BLOCK_RECORD
  5
133
330
1
100
AcDbSymbolTableRecord
100
AcDbBlockTableRecord
  2
block 12
340
0
102
{BLKREFS
331
134
102
}
 70
     0
280
     1
281
     0
  0
BLOCK_RECORD
  5
144
330
1
100
AcDbSymbolTableRecord
100
AcDbBlockTableRecord
  2
block 13
340
0
102
{BLKREFS
331
145
102
}
 70
     0
280
     1
281
     0
  0
ENDTAB
  0
ENDSEC
  0
SECTION
  2
BLOCKS
  0
BLOCK
  5
20
330
1F
100
AcDbEntity
  8
0
100
AcDbBlockBegin
  2
*Model_Space
 70
     0
 10
0.0
 20
0.0
 30
0.0
  3
*Model_Space
  1

  0
ENDBLK
  5
21
330
1F
100
AcDbEntity
  8
0
100
AcDbBlockEnd
  0
BLOCK
  5
1C
330
1B
100
AcDbEntity
 67
     1
  8
0
100
AcDbBlockBegin
  2
*Paper_Space
 70
     0
 10
0.0
 20
0.0
 30
0.0
  3
*Paper_Space
  1

  0
ENDBLK
  5
1D
330
1B
100
AcDbEntity
 67
     1
  8
0
100
AcDbBlockEnd
  0
BLOCK
  5
24
330
23
100
AcDbEntity
  8
0
100
AcDbBlockBegin
  2
*Paper_Space0
 70
     0
 10
0.0
 20
0.0
 30
0.0
  3
*Paper_Space0
  1

  0
ENDBLK
  5
25
330
23
100
AcDbEntity
  8
0
100
AcDbBlockEnd
  0
BLOCK
  5
43
330
41
100
AcDbEntity
  8
0
100
AcDbBlockBegin
  2
block 2
 70
     0
 10
0.0
 20
0.0
 30
0.0
  3
block 2
  1

  0
SPLINE
  5
45
330
41
100
AcDbEntity
  8
Cut
 62
   179
420
  1842203
370
    35
100
AcDbSpline
210
0.0
220
0.0
230
1.0
 70
    11
 71
     3
 72
    23
 73
    19
 74
     0
 42
0.0000000001
 43
0.0000000001
 12
1.0
 22
0.0
 32
0.0
 13
1.0
 23
0.0
 33
0.0
 40
0.0
 40
0.0
 40
0.0
 40
0.0
 40
1.0
 40
1.0
 40
1.0
 40
2.0
 40
2.0
 40
2.0
 40
3.0
 40
3.0
 40
3.0
 40
4.0
 40
4.0
 40
4.0
 40
5.0
 40
5.0
 40
5.0
 40
6.0
 40
6.0
 40
6.0
 40
6.0
 10
60.59813305722348
 20
-143.9604720586248
 30
0.0
 10
61.09456137859207
 20
-144.0798491694354
 30
0.0
 10
61.61187298874056
 20
-144.1450296861511
 30
0.0
 10
62.14433251920147
 20
-144.145433602742
 30
0.0
 10
65.8037023754298
 20
-144.1482095511685
 30
0.0
 10
68.78328276725172
 20
-141.1731462714124
 30
0.0
 10
68.78605871567824
 20
-137.5137764151838
 30
0.0
 10
68.78883466410508
 20
-133.8544065589551
 30
0.0
 10
65.81377138434901
 20
-130.8748261671326
 30
0.0
 10
62.15440152812068
 20
-130.8720502187061
 30
0.0
 10
58.49503167189203
 20
-130.8692742702795
 30
0.0
 10
55.5154512800701
 20
-133.8443375500359
 30
0.0
 10
55.51267533164359
 20
-137.5037074062649
 30
0.0
 10
55.51048067209
 20
-140.396798263957
 30
0.0
 10
57.3702827669527
 20
-142.8634594061671
 30
0.0
 10
59.95729395902988
 20
-143.7716579119804
 30
0.0
 10
60.17424845302772
 20
-143.8266043849571
 30
0.0
 10
60.38750276725476
 20
-143.8905617633546
 30
0.0
 10
60.59813305722348
 20
-143.9604720586248
 30
0.0
  0
SPLINE
  5
46
330
41
100
AcDbEntity
  8
Cut
 62
   179
420
  1842203
370
    35
100
AcDbSpline
210
0.0
220
0.0
230
1.0
 70
    11
 71
     3
 72
    26
 73
    22
 74
     0
 42
0.0000000001
 43
0.0000000001
 12
1.0
 22
0.0
 32
0.0
 13
1.0
 23
0.0
 33
0.0
 40
0.0
 40
0.0
 40
0.0
 40
0.0
 40
1.0
 40
1.0
 40
1.0
 40
2.0
 40
2.0
 40
2.0
 40
3.0
 40
3.0
 40
3.0
 40
4.0
 40
4.0
 40
4.0
 40
5.0
 40
5.0
 40
5.0
 40
6.0
 40
6.0
 40
6.0
 40
7.0
 40
7.0
 40
7.0
 40
7.0
 10
79.15382289136673
 20
-143.5489187051723
 30
0.0
 10
79.1539670009468
 20
-143.3589475055862
 30
0.0
 10
79.16239113922741
 20
-143.1709838264973
 30
0.0
 10
79.16863547405372
 20
-142.9824815759564
 30
0.0
 10
77.18605648662816
 20
-142.4697992539403
 30
0.0
 10
75.34197168150699
 20
-141.6114306052867
 30
0.0
 10
73.70044740577552
 20
-140.4794363070445
 30
0.0
 10
72.7039023249277
 20
-144.3522499980291
 30
0.0
 10
69.80519304177297
 20
-147.4668756534818
 30
0.0
 10
66.0654329778749
 20
-148.7710595500723
 30
0.0
 10
66.65295285029404
 20
-149.9915616359353
 30
0.0
 10
66.98192482233414
 20
-151.3589505501385
 30
0.0
 10
66.98083033747469
 20
-152.8017456910859
 30
0.0
 10
66.97987268019396
 20
-154.0641690678493
 30
0.0
 10
66.72520886986176
 20
-155.267941018343
 30
0.0
 10
66.26701923811325
 20
-156.3663226719719
 30
0.0
 10
66.26701923811325
 20
-156.3663226719719
 30
0.0
 10
81.12579175701435
 20
-151.5709752912443
 30
0.0
 10
81.12579175701435
 20
-151.5709752912443
 30
0.0
 10
79.86696202713716
 20
-149.1705668844753
 30
0.0
 10
79.15162797262353
 20
-146.4423512376837
 30
0.0
 10
79.15382289136673
 20
-143.5489187051723
 30
0.0
  0
SPLINE
  5
47
330
41
100
AcDbEntity
  8
Cut
 62
   179
420
  1842203
370
    35
100
AcDbSpline
210
0.0
220
0.0
230
1.0
 70
    11
 71
     3
 72
    23
 73
    19
 74
     0
 42
0.0000000001
 43
0.0000000001
 12
1.0
 22
0.0
 32
0.0
 13
1.0
 23
0.0
 33
0.0
 40
0.0
 40
0.0
 40
0.0
 40
0.0
 40
1.0
 40
1.0
 40
1.0
 40
2.0
 40
2.0
 40
2.0
 40
3.0
 40
3.0
 40
3.0
 40
4.0
 40
4.0
 40
4.0
 40
5.0
 40
5.0
 40
5.0
 40
6.0
 40
6.0
 40
6.0
 40
6.0
 10
57.67016950091579
 20
-156.8130412620256
 30
0.0
 10
59.88578427265684
 20
-156.814721997393
 30
0.0
 10
61.68989323596598
 20
-155.0133481045605
 30
0.0
 10
61.69157397133331
 20
-152.7977333328207
 30
0.0
 10
61.6928902486855
 20
-151.0625621678441
 30
0.0
 10
60.58623627613249
 20
-149.5841409332366
 30
0.0
 10
59.04289373010981
 20
-149.0218747172223
 30
0.0
 10
58.86464097765192
 20
-148.9737260222274
 30
0.0
 10
58.6878551994602
 20
-148.9220803387055
 30
0.0
 10
58.51297643227195
 20
-148.8659617861296
 30
0.0
 10
58.24288541757668
 20
-148.8082741448573
 30
0.0
 10
57.96328916065346
 20
-148.7765465942546
 30
0.0
 10
57.67626604212838
 20
-148.7763288624029
 30
0.0
 10
55.46065127038766
 20
-148.7746481270356
 30
0.0
 10
53.6565423070785
 20
-150.5760220198671
 30
0.0
 10
53.65486157171151
 20
-152.7916367916081
 30
0.0
 10
53.65318083634386
 20
-155.0072515633479
 30
0.0
 10
55.45455472917507
 20
-156.8113605266577
 30
0.0
 10
57.67016950091579
 20
-156.8130412620256
 30
0.0
  0
SPLINE
  5
48
330
41
100
AcDbEntity
  8
Cut
 62
   179
420
  1842203
370
    35
100
AcDbSpline
210
0.0
220
0.0
230
1.0
 70
    11
 71
     3
 72
    20
 73
    16
 74
     0
 42
0.0000000001
 43
0.0000000001
 12
1.0
 22
0.0
 32
0.0
 13
1.0
 23
0.0
 33
0.0
 40
0.0
 40
0.0
 40
0.0
 40
0.0
 40
1.0
 40
1.0
 40
1.0
 40
2.0
 40
2.0
 40
2.0
 40
3.0
 40
3.0
 40
3.0
 40
4.0
 40
4.0
 40
4.0
 40
5.0
 40
5.0
 40
5.0
 40
5.0
 10
19.33910840317464
 20
-140.6053589653333
 30
0.0
 10
22.93709068351842
 20
-140.6080883459759
 30
0.0
 10
26.12526258237458
 20
-138.8248318651102
 30
0.0
 10
28.06994985380348
 20
-136.0966491053408
 30
0.0
 10
22.24501406495042
 20
-132.5082709830005
 30
0.0
 10
18.07485281256623
 20
-126.4832155597381
 30
0.0
 10
16.99155994595967
 20
-119.4536343315507
 30
0.0
 10
14.9750721322973
 20
-119.9082896082983
 30
0.0
 10
13.17348723068463
 20
-120.9346651283259
 30
0.0
 10
11.76319874842845
 20
-122.3508307285414
 30
0.0
 10
11.76319874842845
 20
-122.3508307285414
 30
0.0
 10
11.75175461370922
 20
-137.4369617317862
 30
0.0
 10
11.75175461370922
 20
-137.4369617317862
 30
0.0
 10
13.69093800067374
 20
-139.3904546770345
 30
0.0
 10
16.37564880291588
 20
-140.6031109250043
 30
0.0
 10
19.33910840317464
 20
-140.6053589653333
 30
0.0
  0
SPLINE
  5
49
330
41
100
AcDbEntity
  8
Cut
 62
   179
420
  1842203
370
    35
100
AcDbSpline
210
0.0
220
0.0
230
1.0
 70
    11
 71
     3
 72
    29
 73
    25
 74
     0
 42
0.0000000001
 43
0.0000000001
 12
1.0
 22
0.0
 32
0.0
 13
1.0
 23
0.0
 33
0.0
 40
0.0
 40
0.0
 40
0.0
 40
0.0
 40
1.0
 40
1.0
 40
1.0
 40
2.0
 40
2.0
 40
2.0
 40
3.0
 40
3.0
 40
3.0
 40
4.0
 40
4.0
 40
4.0
 40
5.0
 40
5.0
 40
5.0
 40
6.0
 40
6.0
 40
6.0
 40
7.0
 40
7.0
 40
7.0
 40
8.0
 40
8.0
 40
8.0
 40
8.0
 10
29.3522668269808
 20
-142.3669191011072
 30
0.0
 10
37.97522091788678
 20
-145.6001903978822
 30
0.0
 10
44.23451845285275
 20
-153.6990245028327
 30
0.0
 10
44.78066702380166
 20
-163.3005718347928
 30
0.0
 10
44.78066702380166
 20
-163.3005718347928
 30
0.0
 10
52.79155567866745
 20
-160.7152390328353
 30
0.0
 10
52.79155567866745
 20
-160.7152390328353
 30
0.0
 10
50.13580681275283
 20
-159.0724196395933
 30
0.0
 10
48.36306729220277
 20
-156.1332066435272
 30
0.0
 10
48.3656052055698
 20
-152.787624433343
 30
0.0
 10
48.36813683666698
 20
-149.4503237699719
 30
0.0
 10
50.13678675195592
 20
-146.5203704004811
 30
0.0
 10
52.78407691386765
 20
-144.8792309064488
 30
0.0
 10
51.19050797921894
 20
-142.8587064317288
 30
0.0
 10
50.23403969315129
 20
-140.3143242652591
 30
0.0
 10
50.22465005356998
 20
-137.5497757770906
 30
0.0
 10
47.25375181063734
 20
-138.8814538969188
 30
0.0
 10
43.96264808584842
 20
-139.6220516593145
 30
0.0
 10
40.50157978670767
 20
-139.6194261397642
 30
0.0
 10
37.84688033157905
 20
-139.6174123207008
 30
0.0
 10
35.29275336298139
 20
-139.1783422871672
 30
0.0
 10
32.90692846108453
 20
-138.3710742580353
 30
0.0
 10
31.95180031799408
 20
-139.8939436881359
 30
0.0
 10
30.74817724455684
 20
-141.2446644588565
 30
0.0
 10
29.3522668269808
 20
-142.3669191011072
 30
0.0
  0
SPLINE
  5
4A
330
41
100
AcDbEntity
  8
Cut
 62
   179
420
  1842203
370
    35
100
AcDbSpline
210
0.0
220
0.0
230
1.0
 70
    11
 71
     3
 72
    20
 73
    16
 74
     0
 42
0.0000000001
 43
0.0000000001
 12
1.0
 22
0.0
 32
0.0
 13
1.0
 23
0.0
 33
0.0
 40
0.0
 40
0.0
 40
0.0
 40
0.0
 40
1.0
 40
1.0
 40
1.0
 40
2.0
 40
2.0
 40
2.0
 40
3.0
 40
3.0
 40
3.0
 40
4.0
 40
4.0
 40
4.0
 40
5.0
 40
5.0
 40
5.0
 40
5.0
 10
99.80348005178566
 20
-132.022166675119
 30
0.0
 10
97.51487246567677
 20
-138.4394302835954
 30
0.0
 10
91.54201512039069
 20
-143.1201912280989
 30
0.0
 10
84.44435288378885
 20
-143.5040399618249
 30
0.0
 10
84.44427537409865
 20
-143.520424033557
 30
0.0
 10
84.4430916986231
 20
-143.5365306721062
 30
0.0
 10
84.44307925750812
 20
-143.5529310634372
 30
0.0
 10
84.44130900288911
 20
-145.8865538097066
 30
0.0
 10
85.11057535709861
 20
-148.0658905427674
 30
0.0
 10
86.26496356766638
 20
-149.9124133313669
 30
0.0
 10
86.26496356766638
 20
-149.9124133313669
 30
0.0
 10
108.4472503996781
 20
-142.7535445298076
 30
0.0
 10
108.4472503996781
 20
-142.7535445298076
 30
0.0
 10
108.1058707101134
 20
-137.6456508303069
 30
0.0
 10
104.5588259050241
 20
-133.4023175746777
 30
0.0
 10
99.80348005178566
 20
-132.022166675119
 30
0.0
  0
SPLINE
  5
4B
330
41
100
AcDbEntity
  8
Cut
 62
   179
420
  1842203
370
    35
100
AcDbSpline
210
0.0
220
0.0
230
1.0
 70
    11
 71
     3
 72
    23
 73
    19
 74
     0
 42
0.0000000001
 43
0.0000000001
 12
1.0
 22
0.0
 32
0.0
 13
1.0
 23
0.0
 33
0.0
 40
0.0
 40
0.0
 40
0.0
 40
0.0
 40
1.0
 40
1.0
 40
1.0
 40
2.0
 40
2.0
 40
2.0
 40
3.0
 40
3.0
 40
3.0
 40
4.0
 40
4.0
 40
4.0
 40
5.0
 40
5.0
 40
5.0
 40
6.0
 40
6.0
 40
6.0
 40
6.0
 10
71.48273288006448
 20
-126.2159459459617
 30
0.0
 10
71.47858424962779
 20
-131.6848419159591
 30
0.0
 10
75.14882921147293
 20
-136.3117256189646
 30
0.0
 10
80.15593412510768
 20
-137.7649418993821
 30
0.0
 10
82.44454171121656
 20
-131.3476782909053
 30
0.0
 10
88.41739905650297
 20
-126.6669173464022
 30
0.0
 10
95.51506129310415
 20
-126.2830686126759
 30
0.0
 10
95.515138802795
 20
-126.2666845409441
 30
0.0
 10
95.51632247827023
 20
-126.2505779023946
 30
0.0
 10
95.51633491938554
 20
-126.2341775110636
 30
0.0
 10
95.51894809655965
 20
-122.7893794414179
 30
0.0
 10
94.06206192494082
 20
-119.6796336203715
 30
0.0
 10
91.73355215787052
 20
-117.4847203975283
 30
0.0
 10
91.73355215787052
 20
-117.4847203975283
 30
0.0
 10
81.95137946780348
 20
-114.3113390753535
 30
0.0
 10
81.95137946780348
 20
-114.3113390753535
 30
0.0
 10
76.05820907625044
 20
-115.0732619272518
 30
0.0
 10
71.48735876548822
 20
-120.1179127418413
 30
0.0
 10
71.48273288006448
 20
-126.2159459459617
 30
0.0
  0
SPLINE
  5
4C
330
41
100
AcDbEntity
  8
Cut
 62
   179
420
  1842203
370
    35
100
AcDbSpline
210
0.0
220
0.0
230
1.0
 70
    11
 71
     3
 72
    20
 73
    16
 74
     0
 42
0.0000000001
 43
0.0000000001
 12
1.0
 22
0.0
 32
0.0
 13
1.0
 23
0.0
 33
0.0
 40
0.0
 40
0.0
 40
0.0
 40
0.0
 40
1.0
 40
1.0
 40
1.0
 40
2.0
 40
2.0
 40
2.0
 40
3.0
 40
3.0
 40
3.0
 40
4.0
 40
4.0
 40
4.0
 40
5.0
 40
5.0
 40
5.0
 40
5.0
 10
39.52646900406437
 20
-164.9962565736133
 30
0.0
 10
39.52833878195826
 20
-164.8907292227685
 30
0.0
 10
39.53464951790752
 20
-164.7862790765387
 30
0.0
 10
39.53472989145882
 20
-164.6803273420666
 30
0.0
 10
39.54247517660092
 20
-154.4701726055544
 30
0.0
 10
31.24210845510604
 20
-146.1572032322365
 30
0.0
 10
21.03195371859453
 20
-146.1494579470944
 30
0.0
 10
17.6487710080474
 20
-146.1468915104967
 30
0.0
 10
14.47669898543666
 20
-147.0608738828069
 30
0.0
 10
11.74324861857682
 20
-148.6499157930056
 30
0.0
 10
11.74324861857682
 20
-148.6499157930056
 30
0.0
 10
11.72404198110151
 20
-173.9688985029088
 30
0.0
 10
11.72404198110151
 20
-173.9688985029088
 30
0.0
 10
11.72404198110151
 20
-173.9688985029088
 30
0.0
 10
39.52646900406437
 20
-164.9962565736133
 30
0.0
 10
39.52646900406437
 20
-164.9962565736133
 30
0.0
  0
SPLINE
  5
4D
330
41
100
AcDbEntity
  8
Cut
 62
   179
420
  1842203
370
    35
100
AcDbSpline
210
0.0
220
0.0
230
1.0
 70
    11
 71
     3
 72
    20
 73
    16
 74
     0
 42
0.0000000001
 43
0.0000000001
 12
1.0
 22
0.0
 32
0.0
 13
1.0
 23
0.0
 33
0.0
 40
0.0
 40
0.0
 40
0.0
 40
0.0
 40
1.0
 40
1.0
 40
1.0
 40
2.0
 40
2.0
 40
2.0
 40
3.0
 40
3.0
 40
3.0
 40
4.0
 40
4.0
 40
4.0
 40
5.0
 40
5.0
 40
5.0
 40
5.0
 10
100.8055912855269
 20
-126.2381898693288
 30
0.0
 10
100.8054471759465
 20
-126.4281610689149
 30
0.0
 10
100.7970230376666
 20
-126.6161247480038
 30
0.0
 10
100.7907787028399
 20
-126.8046269985444
 30
0.0
 10
107.4691989212135
 20
-128.5316213467557
 30
0.0
 10
112.5919932267857
 20
-134.1566797117204
 30
0.0
 10
113.587040627159
 20
-141.0947877961868
 30
0.0
 10
113.587040627159
 20
-141.0947877961868
 30
0.0
 10
139.1160888760895
 20
-132.8558361089149
 30
0.0
 10
139.1160888760895
 20
-132.8558361089149
 30
0.0
 10
139.1160888760895
 20
-132.8558361089149
 30
0.0
 10
99.66558691137818
 20
-120.0579046294247
 30
0.0
 10
99.66558691137818
 20
-120.0579046294247
 30
0.0
 10
100.4009761830608
 20
-121.9789852103256
 30
0.0
 10
100.8072425102739
 20
-124.0614772163107
 30
0.0
 10
100.8055912855269
 20
-126.2381898693288
 30
0.0
  0
SPLINE
  5
4E
330
41
100
AcDbEntity
  8
Cut
 62
   179
420
  1842203
370
    35
100
AcDbSpline
210
0.0
220
0.0
230
1.0
 70
    11
 71
     3
 72
    17
 73
    13
 74
     0
 42
0.0000000001
 43
0.0000000001
 12
1.0
 22
0.0
 32
0.0
 13
1.0
 23
0.0
 33
0.0
 40
0.0
 40
0.0
 40
0.0
 40
0.0
 40
1.0
 40
1.0
 40
1.0
 40
2.0
 40
2.0
 40
2.0
 40
3.0
 40
3.0
 40
3.0
 40
4.0
 40
4.0
 40
4.0
 40
4.0
 10
16.77500549837659
 20
-114.1098517783925
 30
0.0
 10
17.29364043065885
 20
-106.8111720025583
 30
0.0
 10
21.11739519259325
 20
-100.4136047380034
 30
0.0
 10
26.7523633436309
 20
-96.40451579968949
 30
0.0
 10
26.7523633436309
 20
-96.40451579968949
 30
0.0
 10
11.78656418645848
 20
-91.54954537953662
 30
0.0
 10
11.78656418645848
 20
-91.54954537953662
 30
0.0
 10
11.78656418645848
 20
-91.54954537953662
 30
0.0
 10
11.76815334834752
 20
-115.8194725022761
 30
0.0
 10
11.76815334834752
 20
-115.8194725022761
 30
0.0
 10
13.30482391930522
 20
-114.9891639131672
 30
0.0
 10
14.98992413633731
 20
-114.3997186451601
 30
0.0
 10
16.77500549837659
 20
-114.1098517783925
 30
0.0
  0
SPLINE
  5
4F
330
41
100
AcDbEntity
  8
Cut
 62
   179
420
  1842203
370
    35
100
AcDbSpline
210
0.0
220
0.0
230
1.0
 70
    11
 71
     3
 72
    23
 73
    19
 74
     0
 42
0.0000000001
 43
0.0000000001
 12
1.0
 22
0.0
 32
0.0
 13
1.0
 23
0.0
 33
0.0
 40
0.0
 40
0.0
 40
0.0
 40
0.0
 40
1.0
 40
1.0
 40
1.0
 40
2.0
 40
2.0
 40
2.0
 40
3.0
 40
3.0
 40
3.0
 40
4.0
 40
4.0
 40
4.0
 40
5.0
 40
5.0
 40
5.0
 40
6.0
 40
6.0
 40
6.0
 40
6.0
 10
64.32571790608645
 20
-115.8314059590234
 30
0.0
 10
64.3230826360592
 20
-119.3053277394655
 30
0.0
 10
63.57229340401269
 20
-122.6070960414461
 30
0.0
 10
62.22673125940197
 20
-125.5845865927572
 30
0.0
 10
63.61869221735387
 20
-125.5935335813389
 30
0.0
 10
64.9545182503545
 20
-125.8418382812834
 30
0.0
 10
66.19541795333969
 20
-126.2907643677123
 30
0.0
 10
66.19532409340918
 20
-126.2643576988452
 30
0.0
 10
66.19345645756219
 20
-126.238372710626
 30
0.0
 10
66.19347651392277
 20
-126.2119335876962
 30
0.0
 10
66.19806456996474
 20
-120.1637686369795
 30
0.0
 10
69.3230145186777
 20
-114.8360414723041
 30
0.0
 10
74.0389780677697
 20
-111.7445151302084
 30
0.0
 10
74.0389780677697
 20
-111.7445151302084
 30
0.0
 10
63.07291619753189
 20
-108.1870716006258
 30
0.0
 10
63.07291619753189
 20
-108.1870716006258
 30
0.0
 10
63.88686857331086
 20
-110.5877607985343
 30
0.0
 10
64.32774516599665
 20
-113.1589882239752
 30
0.0
 10
64.32571790608645
 20
-115.8314059590234
 30
0.0
  0
SPLINE
  5
50
330
41
100
AcDbEntity
  8
Cut
 62
   179
420
  1842203
370
    35
100
AcDbSpline
210
0.0
220
0.0
230
1.0
 70
    11
 71
     3
 72
    11
 73
     7
 74
     0
 42
0.0000000001
 43
0.0000000001
 12
1.0
 22
0.0
 32
0.0
 13
1.0
 23
0.0
 33
0.0
 40
0.0
 40
0.0
 40
0.0
 40
0.0
 40
1.0
 40
1.0
 40
1.0
 40
2.0
 40
2.0
 40
2.0
 40
2.0
 10
85.80379292652172
 20
-138.017933159782
 30
0.0
 10
89.4379793807509
 20
-137.3090622972506
 30
0.0
 10
92.49012407041447
 20
-134.9572692930044
 30
0.0
 10
94.15562125037192
 20
-131.7691754147191
 30
0.0
 10
90.5214347961421
 20
-132.4780462772501
 30
0.0
 10
87.4692901064795
 20
-134.8298392814964
 30
0.0
 10
85.80379292652172
 20
-138.017933159782
 30
0.0
  0
SPLINE
  5
51
330
41
100
AcDbEntity
  8
Cut
 62
   179
420
  1842203
370
    35
100
AcDbSpline
210
0.0
220
0.0
230
1.0
 70
    11
 71
     3
 72
    26
 73
    22
 74
     0
 42
0.0000000001
 43
0.0000000001
 12
1.0
 22
0.0
 32
0.0
 13
1.0
 23
0.0
 33
0.0
 40
0.0
 40
0.0
 40
0.0
 40
0.0
 40
1.0
 40
1.0
 40
1.0
 40
2.0
 40
2.0
 40
2.0
 40
3.0
 40
3.0
 40
3.0
 40
4.0
 40
4.0
 40
4.0
 40
5.0
 40
5.0
 40
5.0
 40
6.0
 40
6.0
 40
6.0
 40
7.0
 40
7.0
 40
7.0
 40
7.0
 10
22.08205894369253
 20
-114.1386897515396
 30
0.0
 10
29.6089849157649
 20
-115.4413003150402
 30
0.0
 10
35.35062876576803
 20
-122.0170100801964
 30
0.0
 10
35.34464175079859
 20
-129.9093404632781
 30
0.0
 10
35.34371339431738
 20
-131.1331383152198
 30
0.0
 10
35.20005538314302
 20
-132.3234250940024
 30
0.0
 10
34.93770739950615
 20
-133.4689437602757
 30
0.0
 10
36.69570718092817
 20
-134.0259710930619
 30
0.0
 10
38.56583911432316
 20
-134.3286983032368
 30
0.0
 10
40.50559214497253
 20
-134.3301697736225
 30
0.0
 10
50.71574688148372
 20
-134.3379150587643
 30
0.0
 10
59.02871625480265
 20
-126.03754833727
 30
0.0
 10
59.03646153994475
 20
-115.8273936007582
 30
0.0
 10
59.03921417362338
 20
-112.1987582080462
 30
0.0
 10
57.9884963925828
 20
-108.8126288188234
 30
0.0
 10
56.17974086576957
 20
-105.9508999194212
 30
0.0
 10
56.17974086576957
 20
-105.9508999194212
 30
0.0
 10
33.61933376605434
 20
-98.63219080775932
 30
0.0
 10
33.61933376605434
 20
-98.63219080775932
 30
0.0
 10
27.31333808897576
 20
-101.1749848949625
 30
0.0
 10
22.71702927396401
 20
-107.0931817915993
 30
0.0
 10
22.08205894369253
 20
-114.1386897515396
 30
0.0
  0
SPLINE
  5
52
330
41
100
AcDbEntity
  8
Cut
 62
   179
420
  1842203
370
    35
100
AcDbSpline
210
0.0
220
0.0
230
1.0
 70
    11
 71
     3
 72
    14
 73
    10
 74
     0
 42
0.0000000001
 43
0.0000000001
 12
1.0
 22
0.0
 32
0.0
 13
1.0
 23
0.0
 33
0.0
 40
0.0
 40
0.0
 40
0.0
 40
0.0
 40
1.0
 40
1.0
 40
1.0
 40
2.0
 40
2.0
 40
2.0
 40
3.0
 40
3.0
 40
3.0
 40
3.0
 10
22.40173181863895
 20
-119.6357022873112
 30
0.0
 10
23.39258604062509
 20
-124.3372188062778
 30
0.0
 10
26.17276712887179
 20
-128.3856060560767
 30
0.0
 10
29.99436028086497
 20
-131.0360634128248
 30
0.0
 10
30.03385353255118
 20
-130.6643509544438
 30
0.0
 10
30.05509563504262
 20
-130.2872880126426
 30
0.0
 10
30.05538538465688
 20
-129.9053281050132
 30
0.0
 10
30.05906151192033
 20
-125.0593053307796
 30
0.0
 10
26.82524365409301
 20
-120.9547995794638
 30
0.0
 10
22.40173181863895
 20
-119.6357022873112
 30
0.0
  0
ENDBLK
  5
44
330
41
100
AcDbEntity
  8
0
100
AcDbBlockEnd
  0
BLOCK
  5
55
330
53
100
AcDbEntity
  8
0
100
AcDbBlockBegin
  2
block 3
 70
     0
 10
0.0
 20
0.0
 30
0.0
  3
block 3
  1

  0
SPLINE
  5
57
330
53
100
AcDbEntity
  8
Cut
 62
   179
420
  1842203
370
    35
100
AcDbSpline
210
0.0
220
0.0
230
1.0
 70
    11
 71
     3
 72
    20
 73
    16
 74
     0
 42
0.0000000001
 43
0.0000000001
 12
1.0
 22
0.0
 32
0.0
 13
1.0
 23
0.0
 33
0.0
 40
0.0
 40
0.0
 40
0.0
 40
0.0
 40
1.0
 40
1.0
 40
1.0
 40
2.0
 40
2.0
 40
2.0
 40
3.0
 40
3.0
 40
3.0
 40
4.0
 40
4.0
 40
4.0
 40
5.0
 40
5.0
 40
5.0
 40
5.0
 10
59.20235499948901
 20
-84.1681030814388
 30
0.0
 10
58.80501452854224
 20
-86.82239764503231
 30
0.0
 10
57.78824813087641
 20
-89.42217248529934
 30
0.0
 10
56.10638346815358
 20
-91.74058611907459
 30
0.0
 10
55.66791779653942
 20
-92.34500145256972
 30
0.0
 10
55.19400672320142
 20
-92.90822592801074
 30
0.0
 10
54.6953818542534
 20
-93.43854717096588
 30
0.0
 10
54.6953818542534
 20
-93.43854717096588
 30
0.0
 10
63.04498539509105
 20
-96.15611800955493
 30
0.0
 10
63.04498539509105
 20
-96.15611800955493
 30
0.0
 10
62.84652434933653
 20
-92.6111732077668
 30
0.0
 10
63.43182216545004
 20
-89.00796083255139
 30
0.0
 10
64.85087450367922
 20
-85.62926282533479
 30
0.0
 10
62.91869589084598
 20
-85.61902841699012
 30
0.0
 10
60.97638729812379
 20
-85.14138384030134
 30
0.0
 10
59.20235499948901
 20
-84.1681030814388
 30
0.0
  0
SPLINE
  5
58
330
53
100
AcDbEntity
  8
Cut
 62
   179
420
  1842203
370
    35
100
AcDbSpline
210
0.0
220
0.0
230
1.0
 70
    11
 71
     3
 72
    32
 73
    28
 74
     0
 42
0.0000000001
 43
0.0000000001
 12
1.0
 22
0.0
 32
0.0
 13
1.0
 23
0.0
 33
0.0
 40
0.0
 40
0.0
 40
0.0
 40
0.0
 40
1.0
 40
1.0
 40
1.0
 40
2.0
 40
2.0
 40
2.0
 40
3.0
 40
3.0
 40
3.0
 40
4.0
 40
4.0
 40
4.0
 40
5.0
 40
5.0
 40
5.0
 40
6.0
 40
6.0
 40
6.0
 40
7.0
 40
7.0
 40
7.0
 40
8.0
 40
8.0
 40
8.0
 40
9.0
 40
9.0
 40
9.0
 40
9.0
 10
93.92831102864228
 20
-60.34644808012042
 30
0.0
 10
90.91448292682495
 20
-64.50094416769531
 30
0.0
 10
85.08303883706962
 20
-65.42887954117629
 30
0.0
 10
80.92875346648121
 20
-62.4152043014059
 30
0.0
 10
79.81890710346342
 20
-61.61007990435505
 30
0.0
 10
78.94181716552774
 20
-60.60266914941733
 30
0.0
 10
78.3061614973126
 20
-59.48103632933761
 30
0.0
 10
76.4971891146416
 20
-61.43150181944422
 30
0.0
 10
74.4150387815779
 20
-63.02136114091824
 30
0.0
 10
72.16093102860377
 20
-64.23222414848621
 30
0.0
 10
75.0837198102457
 20
-66.46050551121054
 30
0.0
 10
76.69680298317277
 20
-69.7998482387668
 30
0.0
 10
76.83821050401986
 20
-73.23311262220872
 30
0.0
 10
84.40268088669647
 20
-69.76140514548415
 30
0.0
 10
93.5774064297745
 20
-70.35185505775661
 30
0.0
 10
100.7810563174707
 20
-75.57765429057427
 30
0.0
 10
105.8632734434683
 20
-79.2644862121826
 30
0.0
 10
109.0560195583193
 20
-84.6004515780036
 30
0.0
 10
110.1622785145396
 20
-90.32686574824055
 30
0.0
 10
112.1120045177242
 20
-88.61647844975529
 30
0.0
 10
114.389604257953
 20
-87.4042654078054
 30
0.0
 10
116.8039988934214
 20
-86.71356099644997
 30
0.0
 10
116.8039988934214
 20
-86.71356099644997
 30
0.0
 10
95.37130234935226
 20
-57.33452425803073
 30
0.0
 10
95.37130234935226
 20
-57.33452425803073
 30
0.0
 10
95.08429295650556
 20
-58.38925478379749
 30
0.0
 10
94.60723825272183
 20
-59.41056175850587
 30
0.0
 10
93.92831102864228
 20
-60.34644808012042
 30
0.0
  0
SPLINE
  5
59
330
53
100
AcDbEntity
  8
Cut
 62
   179
420
  1842203
370
    35
100
AcDbSpline
210
0.0
220
0.0
230
1.0
 70
    11
 71
     3
 72
    29
 73
    25
 74
     0
 42
0.0000000001
 43
0.0000000001
 12
1.0
 22
0.0
 32
0.0
 13
1.0
 23
0.0
 33
0.0
 40
0.0
 40
0.0
 40
0.0
 40
0.0
 40
1.0
 40
1.0
 40
1.0
 40
2.0
 40
2.0
 40
2.0
 40
3.0
 40
3.0
 40
3.0
 40
4.0
 40
4.0
 40
4.0
 40
5.0
 40
5.0
 40
5.0
 40
6.0
 40
6.0
 40
6.0
 40
7.0
 40
7.0
 40
7.0
 40
8.0
 40
8.0
 40
8.0
 40
8.0
 10
132.529608579929
 20
-108.2695777920801
 30
0.0
 10
132.529608579929
 20
-108.2695777920801
 30
0.0
 10
120.2231750441274
 20
-91.40043839680676
 30
0.0
 10
120.2231750441274
 20
-91.40043839680676
 30
0.0
 10
116.9848440808368
 20
-91.76778080341228
 30
0.0
 10
113.9049029205241
 20
-93.43907346607166
 30
0.0
 10
111.8449148789037
 20
-96.2787219032887
 30
0.0
 10
111.0378605985193
 20
-97.391228568249
 30
0.0
 10
110.453074783285
 20
-98.59755989726698
 30
0.0
 10
110.075679772664
 20
-99.844631507079
 30
0.0
 10
109.9812754888792
 20
-100.287424792939
 30
0.0
 10
109.8738769954533
 20
-100.7284298000314
 30
0.0
 10
109.753574655469
 20
-101.1671894667195
 30
0.0
 10
108.9776445866989
 20
-105.4353683905172
 30
0.0
 10
110.5497029281093
 20
-109.9660789651085
 30
0.0
 10
114.1575350569555
 20
-112.7919198775002
 30
0.0
 10
114.1575350569555
 20
-112.7919198775002
 30
0.0
 10
121.976537802637
 20
-115.3367945515855
 30
0.0
 10
121.976537802637
 20
-115.3367945515855
 30
0.0
 10
125.5530389700316
 20
-115.2122609919518
 30
0.0
 10
129.0393891635005
 20
-113.5057014536168
 30
0.0
 10
131.2987284210512
 20
-110.3912517275881
 30
0.0
 10
131.7895588973487
 20
-109.7146526567217
 30
0.0
 10
132.1988941317209
 20
-109.0034565415872
 30
0.0
 10
132.529608579929
 20
-108.2695777920801
 30
0.0
  0
SPLINE
  5
5A
330
53
100
AcDbEntity
  8
Cut
 62
   179
420
  1842203
370
    35
100
AcDbSpline
210
0.0
220
0.0
230
1.0
 70
    11
 71
     3
 72
    17
 73
    13
 74
     0
 42
0.0000000001
 43
0.0000000001
 12
1.0
 22
0.0
 32
0.0
 13
1.0
 23
0.0
 33
0.0
 40
0.0
 40
0.0
 40
0.0
 40
0.0
 40
1.0
 40
1.0
 40
1.0
 40
2.0
 40
2.0
 40
2.0
 40
3.0
 40
3.0
 40
3.0
 40
4.0
 40
4.0
 40
4.0
 40
4.0
 10
88.75391447074571
 20
-51.62839109289637
 30
0.0
 10
86.96050220652636
 20
-50.32738221814592
 30
0.0
 10
84.44271741186647
 20
-50.72802767368351
 30
0.0
 10
83.14170853711667
 20
-52.52143993790256
 30
0.0
 10
81.84054680032183
 20
-54.31506291910743
 30
0.0
 10
82.24119225585846
 20
-56.83284771376731
 30
0.0
 10
84.03460452007751
 20
-58.13385658851679
 30
0.0
 10
85.82801678429622
 20
-59.43486546326628
 30
0.0
 10
88.34580157895674
 20
-59.03422000772964
 30
0.0
 10
89.64696331575286
 20
-57.24059702652477
 30
0.0
 10
90.9479721905017
 20
-55.44718476230541
 30
0.0
 10
90.54732673496443
 20
-52.92939996764489
 30
0.0
 10
88.75391447074571
 20
-51.62839109289637
 30
0.0
  0
SPLINE
  5
5B
330
53
100
AcDbEntity
  8
Cut
 62
   179
420
  1842203
370
    35
100
AcDbSpline
210
0.0
220
0.0
230
1.0
 70
    11
 71
     3
 72
    20
 73
    16
 74
     0
 42
0.0000000001
 43
0.0000000001
 12
1.0
 22
0.0
 32
0.0
 13
1.0
 23
0.0
 33
0.0
 40
0.0
 40
0.0
 40
0.0
 40
0.0
 40
1.0
 40
1.0
 40
1.0
 40
2.0
 40
2.0
 40
2.0
 40
3.0
 40
3.0
 40
3.0
 40
4.0
 40
4.0
 40
4.0
 40
5.0
 40
5.0
 40
5.0
 40
5.0
 10
75.8513289060701
 20
-54.15310350125775
 30
0.0
 10
81.84673121796565
 20
-45.88857261006653
 30
0.0
 10
80.0006379557647
 20
-34.28712928691493
 30
0.0
 10
71.73589634758765
 20
-28.29157411297307
 30
0.0
 10
66.76082880875467
 20
-24.68247254183014
 30
0.0
 10
60.57774782966339
 20
-23.91893160947259
 30
0.0
 10
55.13508374120885
 20
-25.6825523366405
 30
0.0
 10
55.13508374120885
 20
-25.6825523366405
 30
0.0
 10
42.35681028669536
 20
-43.29712267020697
 30
0.0
 10
42.35681028669536
 20
-43.29712267020697
 30
0.0
 10
42.36966163399477
 20
-49.01837998760839
 30
0.0
 10
45.01467412401099
 20
-54.65907090956448
 30
0.0
 10
49.9897416628443
 20
-58.26817248070773
 30
0.0
 10
58.25448327102198
 20
-64.2637276546496
 30
0.0
 10
69.85592659417262
 20
-62.41763439244928
 30
0.0
 10
75.8513289060701
 20
-54.15310350125775
 30
0.0
  0
SPLINE
  5
5C
330
53
100
AcDbEntity
  8
Cut
 62
   179
420
  1842203
370
    35
100
AcDbSpline
210
0.0
220
0.0
230
1.0
 70
    11
 71
     3
 72
    17
 73
    13
 74
     0
 42
0.0000000001
 43
0.0000000001
 12
1.0
 22
0.0
 32
0.0
 13
1.0
 23
0.0
 33
0.0
 40
0.0
 40
0.0
 40
0.0
 40
0.0
 40
1.0
 40
1.0
 40
1.0
 40
2.0
 40
2.0
 40
2.0
 40
3.0
 40
3.0
 40
3.0
 40
4.0
 40
4.0
 40
4.0
 40
4.0
 10
135.5800761339406
 20
-113.497102781185
 30
0.0
 10
134.1856972106297
 20
-115.4192236141546
 30
0.0
 10
132.4665530101464
 20
-116.9692245017902
 30
0.0
 10
130.5521032804129
 20
-118.127914604307
 30
0.0
 10
130.5521032804129
 20
-118.127914604307
 30
0.0
 10
142.5765870965103
 20
-122.04156928018
 30
0.0
 10
142.5765870965103
 20
-122.04156928018
 30
0.0
 10
142.5765870965103
 20
-122.04156928018
 30
0.0
 10
135.9503016162374
 20
-112.9585204250768
 30
0.0
 10
135.9503016162374
 20
-112.9585204250768
 30
0.0
 10
135.8293577441058
 20
-113.1390652855448
 30
0.0
 10
135.708728653529
 20
-113.3197580982006
 30
0.0
 10
135.5800761339406
 20
-113.497102781185
 30
0.0
  0
SPLINE
  5
5D
330
53
100
AcDbEntity
  8
Cut
 62
   179
420
  1842203
370
    35
100
AcDbSpline
210
0.0
220
0.0
230
1.0
 70
    11
 71
     3
 72
    14
 73
    10
 74
     0
 42
0.0000000001
 43
0.0000000001
 12
1.0
 22
0.0
 32
0.0
 13
1.0
 23
0.0
 33
0.0
 40
0.0
 40
0.0
 40
0.0
 40
0.0
 40
1.0
 40
1.0
 40
1.0
 40
2.0
 40
2.0
 40
2.0
 40
3.0
 40
3.0
 40
3.0
 40
3.0
 10
84.53359438490989
 20
-45.76654318560788
 30
0.0
 10
85.27793712956863
 20
-45.61489758639814
 30
0.0
 10
86.03999160743383
 20
-45.55537733451314
 30
0.0
 10
86.80154724583531
 20
-45.58745524402988
 30
0.0
 10
86.80154724583531
 20
-45.58745524402988
 30
0.0
 10
84.6497335504608
 20
-42.63782172803909
 30
0.0
 10
84.6497335504608
 20
-42.63782172803909
 30
0.0
 10
84.67902422431422
 20
-43.67961565715353
 30
0.0
 10
84.64125342776961
 20
-44.72488140585772
 30
0.0
 10
84.53359438490989
 20
-45.76654318560788
 30
0.0
  0
SPLINE
  5
5E
330
53
100
AcDbEntity
  8
Cut
 62
   179
420
  1842203
370
    35
100
AcDbSpline
210
0.0
220
0.0
230
1.0
 70
    11
 71
     3
 72
    20
 73
    16
 74
     0
 42
0.0000000001
 43
0.0000000001
 12
1.0
 22
0.0
 32
0.0
 13
1.0
 23
0.0
 33
0.0
 40
0.0
 40
0.0
 40
0.0
 40
0.0
 40
1.0
 40
1.0
 40
1.0
 40
2.0
 40
2.0
 40
2.0
 40
3.0
 40
3.0
 40
3.0
 40
4.0
 40
4.0
 40
4.0
 40
5.0
 40
5.0
 40
5.0
 40
5.0
 10
32.37122221311668
 20
-74.52220524117824
 30
0.0
 10
29.9478524261725
 20
-77.86276746253814
 30
0.0
 10
29.49950971275686
 20
-82.04318272298813
 30
0.0
 10
30.80130172917362
 20
-85.66164914672048
 30
0.0
 10
30.80130172917362
 20
-85.66164914672048
 30
0.0
 10
48.83316773043389
 20
-91.5305454378616
 30
0.0
 10
48.83316773043389
 20
-91.5305454378616
 30
0.0
 10
49.96239239580048
 20
-90.76799482577795
 30
0.0
 10
50.97973730171036
 20
-89.79996048626698
 30
0.0
 10
51.82503575526383
 20
-88.6347350654783
 30
0.0
 10
55.71583341582052
 20
-83.27135563166657
 30
0.0
 10
54.51777333015171
 20
-75.74236104281107
 30
0.0
 10
49.15439389634028
 20
-71.85156338225406
 30
0.0
 10
43.79101446252918
 20
-67.96076572169673
 30
0.0
 10
36.26201987367273
 20
-69.15882580736651
 30
0.0
 10
32.37122221311668
 20
-74.52220524117824
 30
0.0
  0
SPLINE
  5
5F
330
53
100
AcDbEntity
  8
Cut
 62
   179
420
  1842203
370
    35
100
AcDbSpline
210
0.0
220
0.0
230
1.0
 70
    11
 71
     3
 72
    32
 73
    28
 74
     0
 42
0.0000000001
 43
0.0000000001
 12
1.0
 22
0.0
 32
0.0
 13
1.0
 23
0.0
 33
0.0
 40
0.0
 40
0.0
 40
0.0
 40
0.0
 40
1.0
 40
1.0
 40
1.0
 40
2.0
 40
2.0
 40
2.0
 40
3.0
 40
3.0
 40
3.0
 40
4.0
 40
4.0
 40
4.0
 40
5.0
 40
5.0
 40
5.0
 40
6.0
 40
6.0
 40
6.0
 40
7.0
 40
7.0
 40
7.0
 40
8.0
 40
8.0
 40
8.0
 40
9.0
 40
9.0
 40
9.0
 40
9.0
 10
28.08987450022693
 20
-71.41635418758196
 30
0.0
 10
33.69333852580388
 20
-63.69210164740181
 30
0.0
 10
44.53599240975642
 20
-61.96675164378608
 30
0.0
 10
52.26024494993625
 20
-67.57021566936527
 30
0.0
 10
52.87183783075337
 20
-68.0138882044249
 30
0.0
 10
53.44136991895656
 20
-68.49376199616536
 30
0.0
 10
53.97709759063143
 20
-68.99898226614279
 30
0.0
 10
54.31859475948679
 20
-68.20540794506083
 30
0.0
 10
54.74882771577891
 20
-67.43636661017808
 30
0.0
 10
55.27688010031368
 20
-66.70845795332485
 30
0.0
 10
55.33714596200665
 20
-66.6253827817625
 30
0.0
 10
55.40087372906874
 20
-66.54634664904819
 30
0.0
 10
55.46287054344595
 20
-66.46529099691034
 30
0.0
 10
52.45515126059951
 20
-65.76903013517116
 30
0.0
 10
49.53588240099941
 20
-64.47337502924651
 30
0.0
 10
46.88389060924833
 20
-62.54952019359652
 30
0.0
 10
42.29668719179833
 20
-59.22178988001923
 30
0.0
 10
39.24905884187156
 20
-54.5504164511082
 30
0.0
 10
37.88512729690642
 20
-49.46123981900985
 30
0.0
 10
37.88512729690642
 20
-49.46123981900985
 30
0.0
 10
15.28706287511216
 20
-80.6121771171587
 30
0.0
 10
15.28706287511216
 20
-80.6121771171587
 30
0.0
 10
15.28706287511216
 20
-80.6121771171587
 30
0.0
 10
24.94194050935697
 20
-83.75459138667422
 30
0.0
 10
24.94194050935697
 20
-83.75459138667422
 30
0.0
 10
24.4059279669329
 20
-79.53886334592352
 30
0.0
 10
25.40344823962182
 20
-75.11953400149102
 30
0.0
 10
28.08987450022693
 20
-71.41635418758196
 30
0.0
  0
SPLINE
  5
60
330
53
100
AcDbEntity
  8
Cut
 62
   179
420
  1842203
370
    35
100
AcDbSpline
210
0.0
220
0.0
230
1.0
 70
    11
 71
     3
 72
    14
 73
    10
 74
     0
 42
0.0000000001
 43
0.0000000001
 12
1.0
 22
0.0
 32
0.0
 13
1.0
 23
0.0
 33
0.0
 40
0.0
 40
0.0
 40
0.0
 40
0.0
 40
1.0
 40
1.0
 40
1.0
 40
2.0
 40
2.0
 40
2.0
 40
3.0
 40
3.0
 40
3.0
 40
3.0
 10
68.72494954233754
 20
-20.80879342230222
 30
0.0
 10
68.72494954233754
 20
-20.80879342230222
 30
0.0
 10
63.68370259437192
 20
-13.8984683146551
 30
0.0
 10
63.68370259437192
 20
-13.8984683146551
 30
0.0
 10
63.68370259437192
 20
-13.8984683146551
 30
0.0
 10
59.60676673099843
 20
-19.51843518783635
 30
0.0
 10
59.60676673099843
 20
-19.51843518783635
 30
0.0
 10
62.66445370670028
 20
-19.35391703744765
 30
0.0
 10
65.76404828313773
 20
-19.77451525240661
 30
0.0
 10
68.72494954233754
 20
-20.80879342230222
 30
0.0
  0
SPLINE
  5
61
330
53
100
AcDbEntity
  8
Cut
 62
   179
420
  1842203
370
    35
100
AcDbSpline
210
0.0
220
0.0
230
1.0
 70
    11
 71
     3
 72
    23
 73
    19
 74
     0
 42
0.0000000001
 43
0.0000000001
 12
1.0
 22
0.0
 32
0.0
 13
1.0
 23
0.0
 33
0.0
 40
0.0
 40
0.0
 40
0.0
 40
0.0
 40
1.0
 40
1.0
 40
1.0
 40
2.0
 40
2.0
 40
2.0
 40
3.0
 40
3.0
 40
3.0
 40
4.0
 40
4.0
 40
4.0
 40
5.0
 40
5.0
 40
5.0
 40
6.0
 40
6.0
 40
6.0
 40
6.0
 10
61.03333450101951
 20
-79.08318212460445
 30
0.0
 10
63.59523161162674
 20
-80.94167888164809
 30
0.0
 10
67.05069358450237
 20
-80.6962735139856
 30
0.0
 10
69.32809782575008
 20
-78.68001705975038
 30
0.0
 10
69.56366425227532
 20
-78.4250353720498
 30
0.0
 10
69.80389986390719
 20
-78.17633536716848
 30
0.0
 10
70.04858309586174
 20
-77.93369601199196
 30
0.0
 10
70.13552981614983
 20
-77.82816698717127
 30
0.0
 10
70.22069393259491
 20
-77.72044026934381
 30
0.0
 10
70.30205475665619
 20
-77.60828615377132
 30
0.0
 10
72.45083653933173
 20
-74.64623748756118
 30
0.0
 10
71.78936031408173
 20
-70.48813696382626
 30
0.0
 10
68.82731164787064
 20
-68.33935518115008
 30
0.0
 10
65.86526298165987
 20
-66.19057339847487
 30
0.0
 10
61.707009595878
 20
-66.85226034070973
 30
0.0
 10
59.5582278132031
 20
-69.8143090069205
 30
0.0
 10
57.4094460305266
 20
-72.77635767313224
 30
0.0
 10
58.07128583480809
 20
-76.93440034192795
 30
0.0
 10
61.03333450101951
 20
-79.08318212460445
 30
0.0
  0
SPLINE
  5
62
330
53
100
AcDbEntity
  8
Cut
 62
   179
420
  1842203
370
    35
100
AcDbSpline
210
0.0
220
0.0
230
1.0
 70
    11
 71
     3
 72
    32
 73
    28
 74
     0
 42
0.0000000001
 43
0.0000000001
 12
1.0
 22
0.0
 32
0.0
 13
1.0
 23
0.0
 33
0.0
 40
0.0
 40
0.0
 40
0.0
 40
0.0
 40
1.0
 40
1.0
 40
1.0
 40
2.0
 40
2.0
 40
2.0
 40
3.0
 40
3.0
 40
3.0
 40
4.0
 40
4.0
 40
4.0
 40
5.0
 40
5.0
 40
5.0
 40
6.0
 40
6.0
 40
6.0
 40
7.0
 40
7.0
 40
7.0
 40
8.0
 40
8.0
 40
8.0
 40
9.0
 40
9.0
 40
9.0
 40
9.0
 10
68.55981642979914
 20
-97.9510499871884
 30
0.0
 10
68.55981642979914
 20
-97.9510499871884
 30
0.0
 10
99.73242231582294
 20
-108.0969217700245
 30
0.0
 10
99.73242231582294
 20
-108.0969217700245
 30
0.0
 10
100.4719047447739
 20
-107.3745930594058
 30
0.0
 10
101.1633678843227
 20
-106.5847659441492
 30
0.0
 10
101.7904271053701
 20
-105.7203785297021
 30
0.0
 10
103.1007127955453
 20
-103.9141783784214
 30
0.0
 10
104.0363315401506
 20
-101.9485629005597
 30
0.0
 10
104.6123924653271
 20
-99.9169453018086
 30
0.0
 10
104.7027712192408
 20
-99.46496037169506
 30
0.0
 10
104.807492378181
 20
-99.01481712659057
 30
0.0
 10
104.9348517543378
 20
-98.56857385213938
 30
0.0
 10
106.3400802634971
 20
-91.66838109171132
 30
0.0
 10
103.7366900708921
 20
-84.25623162290205
 30
0.0
 10
97.67520526387568
 20
-79.85900200346275
 30
0.0
 10
90.28038239101596
 20
-74.49451867927944
 30
0.0
 10
80.21714356335634
 20
-75.41245805763971
 30
0.0
 10
73.88555257569455
 20
-81.58447708051986
 30
0.0
 10
73.63080768596423
 20
-81.87465164336652
 30
0.0
 10
73.36402328545962
 20
-82.14919780085452
 30
0.0
 10
73.08700931047788
 20
-82.40916724180467
 30
0.0
 10
72.64000832673948
 20
-82.90276735017183
 30
0.0
 10
72.21362031157547
 20
-83.42311990881265
 30
0.0
 10
71.81382873763506
 20
-83.97422384495871
 30
0.0
 10
68.77430070431112
 20
-88.16414672573191
 30
0.0
 10
67.75385535497207
 20
-93.21110833868109
 30
0.0
 10
68.55981642979914
 20
-97.9510499871884
 30
0.0
  0
ENDBLK
  5
56
330
53
100
AcDbEntity
  8
0
100
AcDbBlockEnd
  0
BLOCK
  5
65
330
63
100
AcDbEntity
  8
0
100
AcDbBlockBegin
  2
block 4
 70
     0
 10
0.0
 20
0.0
 30
0.0
  3
block 4
  1

  0
SPLINE
  5
67
330
63
100
AcDbEntity
  8
Cut
 62
   179
420
  1842203
370
    35
100
AcDbSpline
210
0.0
220
0.0
230
1.0
 70
    11
 71
     3
 72
    26
 73
    22
 74
     0
 42
0.0000000001
 43
0.0000000001
 12
1.0
 22
0.0
 32
0.0
 13
1.0
 23
0.0
 33
0.0
 40
0.0
 40
0.0
 40
0.0
 40
0.0
 40
1.0
 40
1.0
 40
1.0
 40
2.0
 40
2.0
 40
2.0
 40
3.0
 40
3.0
 40
3.0
 40
4.0
 40
4.0
 40
4.0
 40
5.0
 40
5.0
 40
5.0
 40
6.0
 40
6.0
 40
6.0
 40
7.0
 40
7.0
 40
7.0
 40
7.0
 10
78.21420349137782
 20
-225.0323121911931
 30
0.0
 10
79.46727666274015
 20
-225.5270686138701
 30
0.0
 10
80.75998858667077
 20
-225.9072433291213
 30
0.0
 10
82.07483261455798
 20
-226.1740704442778
 30
0.0
 10
82.07483261455798
 20
-226.1740704442778
 30
0.0
 10
106.4946273628866
 20
-192.8858547113795
 30
0.0
 10
106.4946273628866
 20
-192.8858547113795
 30
0.0
 10
106.0604280534776
 20
-192.1026545673545
 30
0.0
 10
105.5815901223141
 20
-191.334804770529
 30
0.0
 10
105.0449102305935
 20
-190.5908672892636
 30
0.0
 10
97.70661706482035
 20
-180.4186372155465
 30
0.0
 10
83.46037342636393
 20
-178.1129976241736
 30
0.0
 10
73.2881433526452
 20
-185.4512907899471
 30
0.0
 10
68.04665648460639
 20
-189.2325233204218
 30
0.0
 10
64.90030982365788
 20
-194.848749509428
 30
0.0
 10
64.07930855326495
 20
-200.7957566854311
 30
0.0
 10
68.85635799069863
 20
-201.2628832937909
 30
0.0
 10
73.4191815569289
 20
-203.694154210171
 30
0.0
 10
76.44149465272434
 20
-207.8836385317622
 30
0.0
 10
80.1670316520454
 20
-213.0479211038993
 30
0.0
 10
80.62116743151444
 20
-219.5904889770128
 30
0.0
 10
78.21420349137782
 20
-225.0323121911931
 30
0.0
  0
SPLINE
  5
68
330
63
100
AcDbEntity
  8
Cut
 62
   179
420
  1842203
370
    35
100
AcDbSpline
210
0.0
220
0.0
230
1.0
 70
    11
 71
     3
 72
    20
 73
    16
 74
     0
 42
0.0000000001
 43
0.0000000001
 12
1.0
 22
0.0
 32
0.0
 13
1.0
 23
0.0
 33
0.0
 40
0.0
 40
0.0
 40
0.0
 40
0.0
 40
1.0
 40
1.0
 40
1.0
 40
2.0
 40
2.0
 40
2.0
 40
3.0
 40
3.0
 40
3.0
 40
4.0
 40
4.0
 40
4.0
 40
5.0
 40
5.0
 40
5.0
 40
5.0
 10
43.8666548600909
 20
-187.7888299425481
 30
0.0
 10
47.74323897757108
 20
-193.1624917263336
 30
0.0
 10
55.269035234335
 20
-194.3804811308782
 30
0.0
 10
60.64269701812086
 20
-190.5038970133974
 30
0.0
 10
66.0163588019064
 20
-186.6273128959172
 30
0.0
 10
67.23434820645066
 20
-179.1015166391536
 30
0.0
 10
63.35776408897016
 20
-173.727854855368
 30
0.0
 10
62.3516844310107
 20
-172.3332425767271
 30
0.0
 10
61.09853561621341
 20
-171.2213103706893
 30
0.0
 10
59.70230278619292
 20
-170.4029086398583
 30
0.0
 10
59.70230278619292
 20
-170.4029086398583
 30
0.0
 10
42.62188987411775
 20
-175.9121509972586
 30
0.0
 10
42.62188987411775
 20
-175.9121509972586
 30
0.0
 10
40.96600862609881
 20
-179.6846902302608
 30
0.0
 10
41.28685994106581
 20
-184.2127575689719
 30
0.0
 10
43.8666548600909
 20
-187.7888299425481
 30
0.0
  0
SPLINE
  5
69
330
63
100
AcDbEntity
  8
Cut
 62
   179
420
  1842203
370
    35
100
AcDbSpline
210
0.0
220
0.0
230
1.0
 70
    11
 71
     3
 72
    29
 73
    25
 74
     0
 42
0.0000000001
 43
0.0000000001
 12
1.0
 22
0.0
 32
0.0
 13
1.0
 23
0.0
 33
0.0
 40
0.0
 40
0.0
 40
0.0
 40
0.0
 40
1.0
 40
1.0
 40
1.0
 40
2.0
 40
2.0
 40
2.0
 40
3.0
 40
3.0
 40
3.0
 40
4.0
 40
4.0
 40
4.0
 40
5.0
 40
5.0
 40
5.0
 40
6.0
 40
6.0
 40
6.0
 40
7.0
 40
7.0
 40
7.0
 40
8.0
 40
8.0
 40
8.0
 40
8.0
 10
97.60285295367798
 20
-178.1209901259157
 30
0.0
 10
97.23475237727989
 20
-177.7339597997298
 30
0.0
 10
96.88647003171904
 20
-177.3203946347135
 30
0.0
 10
96.56545207023616
 20
-176.8754044321923
 30
0.0
 10
95.88716788498535
 20
-175.9351772387726
 30
0.0
 10
95.36932562510941
 20
-174.9277968979098
 30
0.0
 10
95.00025198535867
 20
-173.8863609596193
 30
0.0
 10
91.01438816872948
 20
-175.8072269101314
 30
0.0
 10
86.09232312582667
 20
-174.6576391887808
 30
0.0
 10
83.41551079891985
 20
-170.9470827639616
 30
0.0
 10
81.74550157218063
 20
-168.6321414423408
 30
0.0
 10
81.29781018298071
 20
-165.8019890214081
 30
0.0
 10
81.94396765481862
 20
-163.2288869445851
 30
0.0
 10
81.94396765481862
 20
-163.2288869445851
 30
0.0
 10
65.76984041772614
 20
-168.4458495985773
 30
0.0
 10
65.76984041772614
 20
-168.4458495985773
 30
0.0
 10
66.44409203828572
 20
-169.1122895160577
 30
0.0
 10
67.07463908477483
 20
-169.8395086441668
 30
0.0
 10
67.64731974539383
 20
-170.6333498422462
 30
0.0
 10
69.83700797193063
 20
-173.6686622680205
 30
0.0
 10
70.89312642583151
 20
-177.1805210198858
 30
0.0
 10
70.90713528375744
 20
-180.6652315644749
 30
0.0
 10
79.0369580052437
 20
-175.1706063652226
 30
0.0
 10
89.11239971053354
 20
-174.5125964095244
 30
0.0
 10
97.60285295367798
 20
-178.1209901259157
 30
0.0
  0
SPLINE
  5
6A
330
63
100
AcDbEntity
  8
Cut
 62
   179
420
  1842203
370
    35
100
AcDbSpline
210
0.0
220
0.0
230
1.0
 70
    11
 71
     3
 72
    17
 73
    13
 74
     0
 42
0.0000000001
 43
0.0000000001
 12
1.0
 22
0.0
 32
0.0
 13
1.0
 23
0.0
 33
0.0
 40
0.0
 40
0.0
 40
0.0
 40
0.0
 40
1.0
 40
1.0
 40
1.0
 40
2.0
 40
2.0
 40
2.0
 40
3.0
 40
3.0
 40
3.0
 40
4.0
 40
4.0
 40
4.0
 40
4.0
 10
73.5377470296925
 20
-222.5193901334058
 30
0.0
 10
75.03136786999686
 20
-218.8162387655782
 30
0.0
 10
74.65569633151709
 20
-214.4488137793979
 30
0.0
 10
72.15193899629972
 20
-210.9781435448822
 30
0.0
 10
70.13772358147014
 20
-208.186068854647
 30
0.0
 10
67.1378491217481
 20
-206.5190544454166
 30
0.0
 10
63.96705105172207
 20
-206.1025137406203
 30
0.0
 10
64.33848374049295
 20
-209.9855680410668
 30
0.0
 10
65.70653226482922
 20
-213.8225016073017
 30
0.0
 10
68.14877797428744
 20
-217.2079053642732
 30
0.0
 10
69.67743040088276
 20
-219.3269000452979
 30
0.0
 10
71.50887434496617
 20
-221.099182522154
 30
0.0
 10
73.5377470296925
 20
-222.5193901334058
 30
0.0
  0
SPLINE
  5
6B
330
63
100
AcDbEntity
  8
Cut
 62
   179
420
  1842203
370
    35
100
AcDbSpline
210
0.0
220
0.0
230
1.0
 70
    11
 71
     3
 72
    20
 73
    16
 74
     0
 42
0.0000000001
 43
0.0000000001
 12
1.0
 22
0.0
 32
0.0
 13
1.0
 23
0.0
 33
0.0
 40
0.0
 40
0.0
 40
0.0
 40
0.0
 40
1.0
 40
1.0
 40
1.0
 40
2.0
 40
2.0
 40
2.0
 40
3.0
 40
3.0
 40
3.0
 40
4.0
 40
4.0
 40
4.0
 40
5.0
 40
5.0
 40
5.0
 40
5.0
 10
43.84035536461521
 20
-214.7269583936484
 30
0.0
 10
46.80808269320858
 20
-212.5860263644413
 30
0.0
 10
47.48077657092547
 20
-208.4295394130872
 30
0.0
 10
45.33984454171875
 20
-205.4618120844945
 30
0.0
 10
43.19891251251107
 20
-202.4940847559018
 30
0.0
 10
39.04242556115822
 20
-201.8213908781852
 30
0.0
 10
36.07469823256486
 20
-203.9623229073922
 30
0.0
 10
34.1191243693027
 20
-205.3730828107714
 30
0.0
 10
33.16077176659574
 20
-207.6588976512909
 30
0.0
 10
33.34671593760727
 20
-209.903157926286
 30
0.0
 10
33.34671593760727
 20
-209.903157926286
 30
0.0
 10
37.34232533650076
 20
-215.4418107399704
 30
0.0
 10
37.34232533650076
 20
-215.4418107399704
 30
0.0
 10
39.41336855546019
 20
-216.3261519647577
 30
0.0
 10
41.88478150135273
 20
-216.1377182970263
 30
0.0
 10
43.84035536461521
 20
-214.7269583936484
 30
0.0
  0
SPLINE
  5
6C
330
63
100
AcDbEntity
  8
Cut
 62
   179
420
  1842203
370
    35
100
AcDbSpline
210
0.0
220
0.0
230
1.0
 70
    11
 71
     3
 72
    23
 73
    19
 74
     0
 42
0.0000000001
 43
0.0000000001
 12
1.0
 22
0.0
 32
0.0
 13
1.0
 23
0.0
 33
0.0
 40
0.0
 40
0.0
 40
0.0
 40
0.0
 40
1.0
 40
1.0
 40
1.0
 40
2.0
 40
2.0
 40
2.0
 40
3.0
 40
3.0
 40
3.0
 40
4.0
 40
4.0
 40
4.0
 40
5.0
 40
5.0
 40
5.0
 40
6.0
 40
6.0
 40
6.0
 40
6.0
 10
55.37589683827007
 20
-208.2630764740329
 30
0.0
 10
50.00223505448485
 20
-212.1396605915137
 30
0.0
 10
48.78424564993995
 20
-219.6654568482767
 30
0.0
 10
52.66082976742078
 20
-225.0391186320635
 30
0.0
 10
56.53741388490096
 20
-230.4127804158497
 30
0.0
 10
64.06321014166487
 20
-231.630769820393
 30
0.0
 10
69.43687192545106
 20
-227.7541857029115
 30
0.0
 10
69.82014883247918
 20
-227.4776879942428
 30
0.0
 10
70.17977984199604
 20
-227.180732429986
 30
0.0
 10
70.52043981737664
 20
-226.8692152293475
 30
0.0
 10
68.01104148767841
 20
-225.116238168676
 30
0.0
 10
65.74885336903988
 20
-222.9217881227049
 30
0.0
 10
63.8592223178628
 20
-220.3024103773925
 30
0.0
 10
60.84178293800588
 20
-216.1196819265085
 30
0.0
 10
59.14909454675119
 20
-211.3780200218406
 30
0.0
 10
58.69616493840596
 20
-206.5801847223008
 30
0.0
 10
57.53700240772028
 20
-206.955623706555
 30
0.0
 10
56.41591827026288
 20
-207.5128002699623
 30
0.0
 10
55.37589683827007
 20
-208.2630764740329
 30
0.0
  0
SPLINE
  5
6D
330
63
100
AcDbEntity
  8
Cut
 62
   179
420
  1842203
370
    35
100
AcDbSpline
210
0.0
220
0.0
230
1.0
 70
    11
 71
     3
 72
    35
 73
    31
 74
     0
 42
0.0000000001
 43
0.0000000001
 12
1.0
 22
0.0
 32
0.0
 13
1.0
 23
0.0
 33
0.0
 40
0.0
 40
0.0
 40
0.0
 40
0.0
 40
1.0
 40
1.0
 40
1.0
 40
2.0
 40
2.0
 40
2.0
 40
3.0
 40
3.0
 40
3.0
 40
4.0
 40
4.0
 40
4.0
 40
5.0
 40
5.0
 40
5.0
 40
6.0
 40
6.0
 40
6.0
 40
7.0
 40
7.0
 40
7.0
 40
8.0
 40
8.0
 40
8.0
 40
9.0
 40
9.0
 40
9.0
 40
10.0
 40
10.0
 40
10.0
 40
10.0
 10
32.98019321944522
 20
-199.6727672509682
 30
0.0
 10
38.31331977899404
 20
-195.8254254291141
 30
0.0
 10
45.78205837628735
 20
-197.0341805118241
 30
0.0
 10
49.62940019814179
 20
-202.3673070713745
 30
0.0
 10
50.22058574896159
 20
-203.1867994660415
 30
0.0
 10
50.69127590380297
 20
-204.0569856489527
 30
0.0
 10
51.04707619914681
 20
-204.9564078638104
 30
0.0
 10
51.44081431324506
 20
-204.6142635713587
 30
0.0
 10
51.85029602077991
 20
-204.2845152969002
 30
0.0
 10
52.28139182515012
 20
-203.9735208176089
 30
0.0
 10
54.26839632126753
 20
-202.5400867123483
 30
0.0
 10
56.46015022441133
 20
-201.5937903216236
 30
0.0
 10
58.71434275806963
 20
-201.1048052265219
 30
0.0
 10
58.851867705591
 20
-199.7403180216025
 30
0.0
 10
59.08844157158193
 20
-198.3871526708544
 30
0.0
 10
59.42237730283072
 20
-197.0565973928392
 30
0.0
 10
52.35634810159895
 20
-199.5719914673471
 30
0.0
 10
44.18074274167946
 20
-197.2648354201748
 30
0.0
 10
39.57709920366658
 20
-190.883334955668
 30
0.0
 10
36.75839701393576
 20
-186.9760929668958
 30
0.0
 10
35.81244479562148
 20
-182.2793785907882
 30
0.0
 10
36.56012749508253
 20
-177.8673709478373
 30
0.0
 10
36.56012749508253
 20
-177.8673709478373
 30
0.0
 10
15.20503180215512
 20
-184.7554320475653
 30
0.0
 10
15.20503180215512
 20
-184.7554320475653
 30
0.0
 10
15.20503180215512
 20
-184.7554320475653
 30
0.0
 10
29.21334791166644
 20
-204.1735462046751
 30
0.0
 10
29.21334791166644
 20
-204.1735462046751
 30
0.0
 10
30.04588724901671
 20
-202.4361902169949
 30
0.0
 10
31.31088618229145
 20
-200.8770129604678
 30
0.0
 10
32.98019321944522
 20
-199.6727672509682
 30
0.0
  0
SPLINE
  5
6E
330
63
100
AcDbEntity
  8
Cut
 62
   179
420
  1842203
370
    35
100
AcDbSpline
210
0.0
220
0.0
230
1.0
 70
    11
 71
     3
 72
    23
 73
    19
 74
     0
 42
0.0000000001
 43
0.0000000001
 12
1.0
 22
0.0
 32
0.0
 13
1.0
 23
0.0
 33
0.0
 40
0.0
 40
0.0
 40
0.0
 40
0.0
 40
1.0
 40
1.0
 40
1.0
 40
2.0
 40
2.0
 40
2.0
 40
3.0
 40
3.0
 40
3.0
 40
4.0
 40
4.0
 40
4.0
 40
5.0
 40
5.0
 40
5.0
 40
6.0
 40
6.0
 40
6.0
 40
6.0
 10
87.70506645534289
 20
-167.8525777508423
 30
0.0
 10
89.0013225911185
 20
-169.6494282376922
 30
0.0
 10
91.5180378257173
 20
-170.0567382930546
 30
0.0
 10
93.31488831256787
 20
-168.7604821572806
 30
0.0
 10
93.93654717306411
 20
-168.3120146202354
 30
0.0
 10
94.38753428283383
 20
-167.7158723313576
 30
0.0
 10
94.66354583934776
 20
-167.055609066302
 30
0.0
 10
94.73995004976138
 20
-166.7434551850982
 30
0.0
 10
94.8290017197629
 20
-166.4344553697798
 30
0.0
 10
94.93039585369722
 20
-166.1289098939718
 30
0.0
 10
95.090391438055
 20
-165.1172745317754
 30
0.0
 10
94.86787471443368
 20
-164.0448631242898
 30
0.0
 10
94.22279271900746
 20
-163.1506603000566
 30
0.0
 10
92.92653658323249
 20
-161.3538098132053
 30
0.0
 10
90.4098213486324
 20
-160.9464997578423
 30
0.0
 10
88.61297086178214
 20
-162.2427558936183
 30
0.0
 10
86.8161203749319
 20
-163.539012029391
 30
0.0
 10
86.40881031956889
 20
-166.0557272639911
 30
0.0
 10
87.70506645534289
 20
-167.8525777508423
 30
0.0
  0
SPLINE
  5
6F
330
63
100
AcDbEntity
  8
Cut
 62
   179
420
  1842203
370
    35
100
AcDbSpline
210
0.0
220
0.0
230
1.0
 70
    11
 71
     3
 72
    26
 73
    22
 74
     0
 42
0.0000000001
 43
0.0000000001
 12
1.0
 22
0.0
 32
0.0
 13
1.0
 23
0.0
 33
0.0
 40
0.0
 40
0.0
 40
0.0
 40
0.0
 40
1.0
 40
1.0
 40
1.0
 40
2.0
 40
2.0
 40
2.0
 40
3.0
 40
3.0
 40
3.0
 40
4.0
 40
4.0
 40
4.0
 40
5.0
 40
5.0
 40
5.0
 40
6.0
 40
6.0
 40
6.0
 40
7.0
 40
7.0
 40
7.0
 40
7.0
 10
75.29873476169733
 20
-229.5504187618376
 30
0.0
 10
74.48342784072491
 20
-230.4608222304241
 30
0.0
 10
73.56225419400324
 20
-231.3000618059387
 30
0.0
 10
72.53137693857069
 20
-232.0437413593368
 30
0.0
 10
64.79231592382905
 20
-237.6267352694634
 30
0.0
 10
53.95426802112404
 20
-235.8726846599255
 30
0.0
 10
48.37127411099646
 20
-228.1336236451835
 30
0.0
 10
46.58802714052054
 20
-225.661713890127
 30
0.0
 10
45.55676382190716
 20
-222.8733793629791
 30
0.0
 10
45.22655918357804
 20
-220.0413680323968
 30
0.0
 10
44.0255470798176
 20
-220.6336953268735
 30
0.0
 10
42.75614134793054
 20
-221.0040423510146
 30
0.0
 10
41.47222845501796
 20
-221.1666194597519
 30
0.0
 10
41.47222845501796
 20
-221.1666194597519
 30
0.0
 10
63.42485384641638
 20
-251.5970139886881
 30
0.0
 10
63.42485384641638
 20
-251.5970139886881
 30
0.0
 10
63.42485384641638
 20
-251.5970139886881
 30
0.0
 10
78.69228448307345
 20
-230.7850146780208
 30
0.0
 10
78.69228448307345
 20
-230.7850146780208
 30
0.0
 10
77.53857329006185
 20
-230.4471254343468
 30
0.0
 10
76.404718963635
 20
-230.0353670645689
 30
0.0
 10
75.29873476169733
 20
-229.5504187618376
 30
0.0
  0
SPLINE
  5
70
330
63
100
AcDbEntity
  8
Cut
 62
   179
420
  1842203
370
    35
100
AcDbSpline
210
0.0
220
0.0
230
1.0
 70
    11
 71
     3
 72
    23
 73
    19
 74
     0
 42
0.0000000001
 43
0.0000000001
 12
1.0
 22
0.0
 32
0.0
 13
1.0
 23
0.0
 33
0.0
 40
0.0
 40
0.0
 40
0.0
 40
0.0
 40
1.0
 40
1.0
 40
1.0
 40
2.0
 40
2.0
 40
2.0
 40
3.0
 40
3.0
 40
3.0
 40
4.0
 40
4.0
 40
4.0
 40
5.0
 40
5.0
 40
5.0
 40
6.0
 40
6.0
 40
6.0
 40
6.0
 10
98.8401044631515
 20
-160.5456373232093
 30
0.0
 10
98.9775507663991
 20
-160.4370136253312
 30
0.0
 10
99.11654839367783
 20
-160.3296782463793
 30
0.0
 10
99.25999189064245
 20
-160.2261974534944
 30
0.0
 10
101.5711594251112
 20
-158.5589106540192
 30
0.0
 10
104.2832852623752
 20
-157.8427697916168
 30
0.0
 10
106.9280531474994
 20
-157.998730056066
 30
0.0
 10
106.6175447078898
 20
-157.1501325209445
 30
0.0
 10
106.3612624551351
 20
-156.2890183026308
 30
0.0
 10
106.1518113127558
 20
-155.4206821188339
 30
0.0
 10
106.1518113127558
 20
-155.4206821188339
 30
0.0
 10
96.96210370344062
 20
-158.3848347089935
 30
0.0
 10
96.96210370344062
 20
-158.3848347089935
 30
0.0
 10
97.5333959158082
 20
-158.8662273991245
 30
0.0
 10
98.05589441715131
 20
-159.4234257711209
 30
0.0
 10
98.51234837543049
 20
-160.0561552869353
 30
0.0
 10
98.62813720485404
 20
-160.2166599964449
 30
0.0
 10
98.73600884844626
 20
-160.3804286245737
 30
0.0
 10
98.8401044631515
 20
-160.5456373232093
 30
0.0
  0
SPLINE
  5
71
330
63
100
AcDbEntity
  8
Cut
 62
   179
420
  1842203
370
    35
100
AcDbSpline
210
0.0
220
0.0
230
1.0
 70
    11
 71
     3
 72
    23
 73
    19
 74
     0
 42
0.0000000001
 43
0.0000000001
 12
1.0
 22
0.0
 32
0.0
 13
1.0
 23
0.0
 33
0.0
 40
0.0
 40
0.0
 40
0.0
 40
0.0
 40
1.0
 40
1.0
 40
1.0
 40
2.0
 40
2.0
 40
2.0
 40
3.0
 40
3.0
 40
3.0
 40
4.0
 40
4.0
 40
4.0
 40
5.0
 40
5.0
 40
5.0
 40
6.0
 40
6.0
 40
6.0
 40
6.0
 10
103.4401411862927
 20
-181.4825813932871
 30
0.0
 10
105.6446102933573
 20
-183.1369096249573
 30
0.0
 10
107.6391171449944
 20
-185.1462957048756
 30
0.0
 10
109.3344658870178
 20
-187.4963622761437
 30
0.0
 10
109.5205047625725
 20
-187.7542465282524
 30
0.0
 10
109.6996232397567
 20
-188.0149966054464
 30
0.0
 10
109.8756325990171
 20
-188.2770266340279
 30
0.0
 10
109.8756325990171
 20
-188.2770266340279
 30
0.0
 10
121.580198069059
 20
-172.3218113651303
 30
0.0
 10
121.580198069059
 20
-172.3218113651303
 30
0.0
 10
120.393675199821
 20
-171.9175539409912
 30
0.0
 10
119.2350217945421
 20
-171.4222517976457
 30
0.0
 10
118.1186567523109
 20
-170.8316420759889
 30
0.0
 10
117.851203391181
 20
-174.2029011700305
 30
0.0
 10
116.1657737970208
 20
-177.4409966147293
 30
0.0
 10
113.2146590489337
 20
-179.5699442525979
 30
0.0
 10
110.2828354785259
 20
-181.6849751469124
 30
0.0
 10
106.7063456213091
 20
-182.2688127398168
 30
0.0
 10
103.4401411862927
 20
-181.4825813932871
 30
0.0
  0
SPLINE
  5
72
330
63
100
AcDbEntity
  8
Cut
 62
   179
420
  1842203
370
    35
100
AcDbSpline
210
0.0
220
0.0
230
1.0
 70
    11
 71
     3
 72
    23
 73
    19
 74
     0
 42
0.0000000001
 43
0.0000000001
 12
1.0
 22
0.0
 32
0.0
 13
1.0
 23
0.0
 33
0.0
 40
0.0
 40
0.0
 40
0.0
 40
0.0
 40
1.0
 40
1.0
 40
1.0
 40
2.0
 40
2.0
 40
2.0
 40
3.0
 40
3.0
 40
3.0
 40
4.0
 40
4.0
 40
4.0
 40
5.0
 40
5.0
 40
5.0
 40
6.0
 40
6.0
 40
6.0
 40
6.0
 10
102.3544969037624
 20
-164.5157531099184
 30
0.0
 10
101.2659968214301
 20
-165.3010020334327
 30
0.0
 10
100.4876455867337
 20
-166.3578813638929
 30
0.0
 10
100.0422476463064
 20
-167.5273385125406
 30
0.0
 10
99.96057610508551
 20
-167.8942901105848
 30
0.0
 10
99.85670703247199
 20
-168.2563905323025
 30
0.0
 10
99.73121443575288
 20
-168.6118213397048
 30
0.0
 10
99.38723199752954
 20
-170.3547181395711
 30
0.0
 10
99.73618531173825
 20
-172.2300048501132
 30
0.0
 10
100.8550077266602
 20
-173.7808994190717
 30
0.0
 10
102.9959397558678
 20
-176.7486267476637
 30
0.0
 10
107.1524267072197
 20
-177.4213206253816
 30
0.0
 10
110.1201540358124
 20
-175.2803885961746
 30
0.0
 10
113.0878813644058
 20
-173.1394565669669
 30
0.0
 10
113.760575242123
 20
-168.9829696156153
 30
0.0
 10
111.6196432129157
 20
-166.0152422870213
 30
0.0
 10
109.4787111837086
 20
-163.0475149584292
 30
0.0
 10
105.3222242323551
 20
-162.3748210807107
 30
0.0
 10
102.3544969037624
 20
-164.5157531099184
 30
0.0
  0
SPLINE
  5
73
330
63
100
AcDbEntity
  8
Cut
 62
   179
420
  1842203
370
    35
100
AcDbSpline
210
0.0
220
0.0
230
1.0
 70
    11
 71
     3
 72
    17
 73
    13
 74
     0
 42
0.0000000001
 43
0.0000000001
 12
1.0
 22
0.0
 32
0.0
 13
1.0
 23
0.0
 33
0.0
 40
0.0
 40
0.0
 40
0.0
 40
0.0
 40
1.0
 40
1.0
 40
1.0
 40
2.0
 40
2.0
 40
2.0
 40
3.0
 40
3.0
 40
3.0
 40
4.0
 40
4.0
 40
4.0
 40
4.0
 10
142.6037874715602
 20
-143.6631794394132
 30
0.0
 10
142.6037874715602
 20
-143.6631794394132
 30
0.0
 10
111.2032262078964
 20
-153.7913642510755
 30
0.0
 10
111.2032262078964
 20
-153.7913642510755
 30
0.0
 10
111.7283973421764
 20
-156.1924675009764
 30
0.0
 10
112.7392464489511
 20
-158.5265975721333
 30
0.0
 10
114.2664519911272
 20
-160.6435866040406
 30
0.0
 10
116.9485949448413
 20
-164.3615322624464
 30
0.0
 10
120.7654500935357
 20
-166.7836543005127
 30
0.0
 10
124.9056564423113
 20
-167.7886050767599
 30
0.0
 10
124.9056564423113
 20
-167.7886050767599
 30
0.0
 10
142.6037874715602
 20
-143.6631794394132
 30
0.0
 10
142.6037874715602
 20
-143.6631794394132
 30
0.0
  0
ENDBLK
  5
66
330
63
100
AcDbEntity
  8
0
100
AcDbBlockEnd
  0
BLOCK
  5
91
330
8F
100
AcDbEntity
  8
0
100
AcDbBlockBegin
  2
block 5
 70
     0
 10
0.0
 20
0.0
 30
0.0
  3
block 5
  1

  0
SPLINE
  5
93
330
8F
100
AcDbEntity
  8
Cut
 62
   179
420
  1842203
370
    35
100
AcDbSpline
210
0.0
220
0.0
230
1.0
 70
    11
 71
     3
 72
    23
 73
    19
 74
     0
 42
0.0000000001
 43
0.0000000001
 12
1.0
 22
0.0
 32
0.0
 13
1.0
 23
0.0
 33
0.0
 40
0.0
 40
0.0
 40
0.0
 40
0.0
 40
1.0
 40
1.0
 40
1.0
 40
2.0
 40
2.0
 40
2.0
 40
3.0
 40
3.0
 40
3.0
 40
4.0
 40
4.0
 40
4.0
 40
5.0
 40
5.0
 40
5.0
 40
6.0
 40
6.0
 40
6.0
 40
6.0
 10
142.990469555269
 20
-323.1046947471688
 30
0.0
 10
143.1098466660799
 20
-322.6082664258002
 30
0.0
 10
143.1750271827956
 20
-322.090954815652
 30
0.0
 10
143.1754310993865
 20
-321.5584952851911
 30
0.0
 10
143.178207047813
 20
-317.8991254289631
 30
0.0
 10
140.2031437680573
 20
-314.9195450371412
 30
0.0
 10
136.543773911828
 20
-314.9167690887147
 30
0.0
 10
132.8844040556
 20
-314.9139931402875
 30
0.0
 10
129.9048236637767
 20
-317.8890564200439
 30
0.0
 10
129.9020477153502
 20
-321.5484262762719
 30
0.0
 10
129.8992717669244
 20
-325.2077961325006
 30
0.0
 10
132.8743350466808
 20
-328.1873765243225
 30
0.0
 10
136.5337049029094
 20
-328.190152472749
 30
0.0
 10
139.4267957606008
 20
-328.1923471323029
 30
0.0
 10
141.8934569028113
 20
-326.3325450374399
 30
0.0
 10
142.801655408625
 20
-323.7455338453627
 30
0.0
 10
142.856601881602
 20
-323.5285793513652
 30
0.0
 10
142.9205592599991
 20
-323.3153250371375
 30
0.0
 10
142.990469555269
 20
-323.1046947471688
 30
0.0
  0
SPLINE
  5
94
330
8F
100
AcDbEntity
  8
Cut
 62
   179
420
  1842203
370
    35
100
AcDbSpline
210
0.0
220
0.0
230
1.0
 70
    11
 71
     3
 72
    26
 73
    22
 74
     0
 42
0.0000000001
 43
0.0000000001
 12
1.0
 22
0.0
 32
0.0
 13
1.0
 23
0.0
 33
0.0
 40
0.0
 40
0.0
 40
0.0
 40
0.0
 40
1.0
 40
1.0
 40
1.0
 40
2.0
 40
2.0
 40
2.0
 40
3.0
 40
3.0
 40
3.0
 40
4.0
 40
4.0
 40
4.0
 40
5.0
 40
5.0
 40
5.0
 40
6.0
 40
6.0
 40
6.0
 40
7.0
 40
7.0
 40
7.0
 40
7.0
 10
142.5789162018172
 20
-304.5490049130262
 30
0.0
 10
142.3889450022307
 20
-304.5488608034458
 30
0.0
 10
142.2009813231421
 20
-304.5404366651651
 30
0.0
 10
142.0124790726009
 20
-304.5341923303388
 30
0.0
 10
141.4997967505851
 20
-306.5167713177644
 30
0.0
 10
140.6414281019312
 20
-308.3608561228862
 30
0.0
 10
139.509433803689
 20
-310.002380398617
 30
0.0
 10
143.3822474946742
 20
-310.9989254794652
 30
0.0
 10
146.4968731501263
 20
-313.8976347626193
 30
0.0
 10
147.8010570467168
 20
-317.6373948265177
 30
0.0
 10
149.0215591325798
 20
-317.0498749540985
 30
0.0
 10
150.3889480467827
 20
-316.7209029820585
 30
0.0
 10
151.8317431877301
 20
-316.7219974669182
 30
0.0
 10
153.0941665644941
 20
-316.7229551241983
 30
0.0
 10
154.2979385149872
 20
-316.9776189345308
 30
0.0
 10
155.3963201686161
 20
-317.4358085662797
 30
0.0
 10
155.3963201686161
 20
-317.4358085662797
 30
0.0
 10
150.6009727878884
 20
-302.5770360473786
 30
0.0
 10
150.6009727878884
 20
-302.5770360473786
 30
0.0
 10
148.2005643811195
 20
-303.8358657772554
 30
0.0
 10
145.4723487343282
 20
-304.5511998317694
 30
0.0
 10
142.5789162018172
 20
-304.5490049130262
 30
0.0
  0
SPLINE
  5
95
330
8F
100
AcDbEntity
  8
Cut
 62
   179
420
  1842203
370
    35
100
AcDbSpline
210
0.0
220
0.0
230
1.0
 70
    11
 71
     3
 72
    23
 73
    19
 74
     0
 42
0.0000000001
 43
0.0000000001
 12
1.0
 22
0.0
 32
0.0
 13
1.0
 23
0.0
 33
0.0
 40
0.0
 40
0.0
 40
0.0
 40
0.0
 40
1.0
 40
1.0
 40
1.0
 40
2.0
 40
2.0
 40
2.0
 40
3.0
 40
3.0
 40
3.0
 40
4.0
 40
4.0
 40
4.0
 40
5.0
 40
5.0
 40
5.0
 40
6.0
 40
6.0
 40
6.0
 40
6.0
 10
155.8430387586705
 20
-326.0326583034771
 30
0.0
 10
155.8447194940378
 20
-323.8170435317361
 30
0.0
 10
154.043345601206
 20
-322.0129345684263
 30
0.0
 10
151.8277308294649
 20
-322.011253833059
 30
0.0
 10
150.0925596644896
 20
-322.0099375557074
 30
0.0
 10
148.6141384298805
 20
-323.1165915282601
 30
0.0
 10
148.0518722138661
 20
-324.6599340742831
 30
0.0
 10
148.0037235188725
 20
-324.8381868267404
 30
0.0
 10
147.95207783535
 20
-325.0149726049324
 30
0.0
 10
147.8959592827744
 20
-325.1898513721203
 30
0.0
 10
147.8382716415018
 20
-325.4599423868159
 30
0.0
 10
147.8065440908995
 20
-325.7395386437388
 30
0.0
 10
147.8063263590481
 20
-326.0265617622645
 30
0.0
 10
147.8046456236804
 20
-328.2421765340049
 30
0.0
 10
149.6060195165126
 20
-330.0462854973141
 30
0.0
 10
151.8216342882523
 20
-330.0479662326814
 30
0.0
 10
154.0372490599934
 20
-330.0496469680487
 30
0.0
 10
155.8413580233032
 20
-328.2482730752175
 30
0.0
 10
155.8430387586705
 20
-326.0326583034771
 30
0.0
  0
SPLINE
  5
96
330
8F
100
AcDbEntity
  8
Cut
 62
   179
420
  1842203
370
    35
100
AcDbSpline
210
0.0
220
0.0
230
1.0
 70
    11
 71
     3
 72
    20
 73
    16
 74
     0
 42
0.0000000001
 43
0.0000000001
 12
1.0
 22
0.0
 32
0.0
 13
1.0
 23
0.0
 33
0.0
 40
0.0
 40
0.0
 40
0.0
 40
0.0
 40
1.0
 40
1.0
 40
1.0
 40
2.0
 40
2.0
 40
2.0
 40
3.0
 40
3.0
 40
3.0
 40
4.0
 40
4.0
 40
4.0
 40
5.0
 40
5.0
 40
5.0
 40
5.0
 10
139.6353564619775
 20
-364.3637194012189
 30
0.0
 10
139.6380858426205
 20
-360.7657371208729
 30
0.0
 10
137.854829361755
 20
-357.5775652220196
 30
0.0
 10
135.1266466019853
 20
-355.6328779505904
 30
0.0
 10
131.538268479645
 20
-361.4578137394435
 30
0.0
 10
125.513213056383
 20
-365.627974991827
 30
0.0
 10
118.4836318281955
 20
-366.7112678584342
 30
0.0
 10
118.9382871049428
 20
-368.727755672094
 30
0.0
 10
119.9646626249704
 20
-370.5293405737089
 30
0.0
 10
121.3808282251856
 20
-371.9396290559657
 30
0.0
 10
121.3808282251856
 20
-371.9396290559657
 30
0.0
 10
136.4669592284307
 20
-371.9510731906824
 30
0.0
 10
136.4669592284307
 20
-371.9510731906824
 30
0.0
 10
138.4204521736794
 20
-370.0118898037195
 30
0.0
 10
139.6331084216488
 20
-367.3271790014767
 30
0.0
 10
139.6353564619775
 20
-364.3637194012189
 30
0.0
  0
SPLINE
  5
97
330
8F
100
AcDbEntity
  8
Cut
 62
   179
420
  1842203
370
    35
100
AcDbSpline
210
0.0
220
0.0
230
1.0
 70
    11
 71
     3
 72
    29
 73
    25
 74
     0
 42
0.0000000001
 43
0.0000000001
 12
1.0
 22
0.0
 32
0.0
 13
1.0
 23
0.0
 33
0.0
 40
0.0
 40
0.0
 40
0.0
 40
0.0
 40
1.0
 40
1.0
 40
1.0
 40
2.0
 40
2.0
 40
2.0
 40
3.0
 40
3.0
 40
3.0
 40
4.0
 40
4.0
 40
4.0
 40
5.0
 40
5.0
 40
5.0
 40
6.0
 40
6.0
 40
6.0
 40
7.0
 40
7.0
 40
7.0
 40
8.0
 40
8.0
 40
8.0
 40
8.0
 10
141.3969165977518
 20
-354.3505609774111
 30
0.0
 10
144.6301878945267
 20
-345.7276068865058
 30
0.0
 10
152.7290219994782
 20
-339.4683093515395
 30
0.0
 10
162.330569331437
 20
-338.9221607805906
 30
0.0
 10
162.330569331437
 20
-338.9221607805906
 30
0.0
 10
159.7452365294808
 20
-330.9112721257251
 30
0.0
 10
159.7452365294808
 20
-330.9112721257251
 30
0.0
 10
158.1024171362375
 20
-333.5670209916398
 30
0.0
 10
155.163204140172
 20
-335.3397605121895
 30
0.0
 10
151.8176219299872
 20
-335.3372225988228
 30
0.0
 10
148.4803212666164
 20
-335.3346909677256
 30
0.0
 10
145.5503678971256
 20
-333.5660410524367
 30
0.0
 10
143.9092284030933
 20
-330.9187508905252
 30
0.0
 10
141.8887039283733
 20
-332.5123198251736
 30
0.0
 10
139.3443217619036
 20
-333.4687881112416
 30
0.0
 10
136.5797732737352
 20
-333.4781777508229
 30
0.0
 10
137.9114513935633
 20
-336.4490759937549
 30
0.0
 10
138.652049155959
 20
-339.7401797185441
 30
0.0
 10
138.6494236364084
 20
-343.2012480176853
 30
0.0
 10
138.6474098173456
 20
-345.8559474728132
 30
0.0
 10
138.2083397838117
 20
-348.4100744414112
 30
0.0
 10
137.4010717546802
 20
-350.7958993433081
 30
0.0
 10
138.9239411847807
 20
-351.7510274863985
 30
0.0
 10
140.274661955501
 20
-352.9546505598351
 30
0.0
 10
141.3969165977518
 20
-354.3505609774111
 30
0.0
  0
SPLINE
  5
98
330
8F
100
AcDbEntity
  8
Cut
 62
   179
420
  1842203
370
    35
100
AcDbSpline
210
0.0
220
0.0
230
1.0
 70
    11
 71
     3
 72
    20
 73
    16
 74
     0
 42
0.0000000001
 43
0.0000000001
 12
1.0
 22
0.0
 32
0.0
 13
1.0
 23
0.0
 33
0.0
 40
0.0
 40
0.0
 40
0.0
 40
0.0
 40
1.0
 40
1.0
 40
1.0
 40
2.0
 40
2.0
 40
2.0
 40
3.0
 40
3.0
 40
3.0
 40
4.0
 40
4.0
 40
4.0
 40
5.0
 40
5.0
 40
5.0
 40
5.0
 10
131.0521641717632
 20
-283.8993477526072
 30
0.0
 10
137.4694277802403
 20
-286.1879553387155
 30
0.0
 10
142.1501887247438
 20
-292.1608126840022
 30
0.0
 10
142.5340374584694
 20
-299.2584749206034
 30
0.0
 10
142.5504215302016
 20
-299.2585524302939
 30
0.0
 10
142.5665281687507
 20
-299.2597361057695
 30
0.0
 10
142.5829285600817
 20
-299.2597485468842
 30
0.0
 10
144.9165513063511
 20
-299.2615188015031
 30
0.0
 10
147.0958880394116
 20
-298.592252447294
 30
0.0
 10
148.9424108280114
 20
-297.4378642367259
 30
0.0
 10
148.9424108280114
 20
-297.4378642367259
 30
0.0
 10
141.7835420264521
 20
-275.2555774047141
 30
0.0
 10
141.7835420264521
 20
-275.2555774047141
 30
0.0
 10
136.6756483269517
 20
-275.5969570942795
 30
0.0
 10
132.4323150713222
 20
-279.1440018993685
 30
0.0
 10
131.0521641717632
 20
-283.8993477526072
 30
0.0
  0
SPLINE
  5
99
330
8F
100
AcDbEntity
  8
Cut
 62
   179
420
  1842203
370
    35
100
AcDbSpline
210
0.0
220
0.0
230
1.0
 70
    11
 71
     3
 72
    23
 73
    19
 74
     0
 42
0.0000000001
 43
0.0000000001
 12
1.0
 22
0.0
 32
0.0
 13
1.0
 23
0.0
 33
0.0
 40
0.0
 40
0.0
 40
0.0
 40
0.0
 40
1.0
 40
1.0
 40
1.0
 40
2.0
 40
2.0
 40
2.0
 40
3.0
 40
3.0
 40
3.0
 40
4.0
 40
4.0
 40
4.0
 40
5.0
 40
5.0
 40
5.0
 40
6.0
 40
6.0
 40
6.0
 40
6.0
 10
125.2459434426059
 20
-312.2200949243284
 30
0.0
 10
130.7148394126036
 20
-312.2242435547648
 30
0.0
 10
135.3417231156085
 20
-308.5539985929196
 30
0.0
 10
136.7949393960266
 20
-303.5468936792846
 30
0.0
 10
130.3776757875495
 20
-301.2582860931764
 30
0.0
 10
125.6969148430467
 20
-295.2854287478896
 30
0.0
 10
125.3130661093204
 20
-288.1877665112884
 30
0.0
 10
125.2966820375889
 20
-288.1876890015973
 30
0.0
 10
125.2805753990391
 20
-288.1865053261224
 30
0.0
 10
125.2641750077081
 20
-288.1864928850071
 30
0.0
 10
121.8193769380624
 20
-288.1838797078329
 30
0.0
 10
118.7096311170161
 20
-289.6407658794517
 30
0.0
 10
116.5147178941725
 20
-291.9692756465217
 30
0.0
 10
116.5147178941725
 20
-291.9692756465217
 30
0.0
 10
113.3413365719981
 20
-301.7514483365891
 30
0.0
 10
113.3413365719981
 20
-301.7514483365891
 30
0.0
 10
114.1032594238963
 20
-307.6446187281418
 30
0.0
 10
119.1479102384861
 20
-312.215469038904
 30
0.0
 10
125.2459434426059
 20
-312.2200949243284
 30
0.0
  0
SPLINE
  5
9A
330
8F
100
AcDbEntity
  8
Cut
 62
   179
420
  1842203
370
    35
100
AcDbSpline
210
0.0
220
0.0
230
1.0
 70
    11
 71
     3
 72
    20
 73
    16
 74
     0
 42
0.0000000001
 43
0.0000000001
 12
1.0
 22
0.0
 32
0.0
 13
1.0
 23
0.0
 33
0.0
 40
0.0
 40
0.0
 40
0.0
 40
0.0
 40
1.0
 40
1.0
 40
1.0
 40
2.0
 40
2.0
 40
2.0
 40
3.0
 40
3.0
 40
3.0
 40
4.0
 40
4.0
 40
4.0
 40
5.0
 40
5.0
 40
5.0
 40
5.0
 10
164.0262540702575
 20
-344.1763588003282
 30
0.0
 10
163.9207267194127
 20
-344.1744890224343
 30
0.0
 10
163.8162765731829
 20
-344.168178286485
 30
0.0
 10
163.7103248387108
 20
-344.1680979129341
 30
0.0
 10
153.5001701021999
 20
-344.1603526277913
 30
0.0
 10
145.187200728881
 20
-352.4607193492862
 30
0.0
 10
145.1794554437389
 20
-362.6708740857971
 30
0.0
 10
145.1768890071409
 20
-366.0540567963436
 30
0.0
 10
146.0908713794517
 20
-369.2261288189575
 30
0.0
 10
147.6799132896498
 20
-371.9595791858142
 30
0.0
 10
147.6799132896498
 20
-371.9595791858142
 30
0.0
 10
172.998895999553
 20
-371.978785823291
 30
0.0
 10
172.998895999553
 20
-371.978785823291
 30
0.0
 10
172.998895999553
 20
-371.978785823291
 30
0.0
 10
164.0262540702575
 20
-344.1763588003282
 30
0.0
 10
164.0262540702575
 20
-344.1763588003282
 30
0.0
  0
SPLINE
  5
9B
330
8F
100
AcDbEntity
  8
Cut
 62
   179
420
  1842203
370
    35
100
AcDbSpline
210
0.0
220
0.0
230
1.0
 70
    11
 71
     3
 72
    20
 73
    16
 74
     0
 42
0.0000000001
 43
0.0000000001
 12
1.0
 22
0.0
 32
0.0
 13
1.0
 23
0.0
 33
0.0
 40
0.0
 40
0.0
 40
0.0
 40
0.0
 40
1.0
 40
1.0
 40
1.0
 40
2.0
 40
2.0
 40
2.0
 40
3.0
 40
3.0
 40
3.0
 40
4.0
 40
4.0
 40
4.0
 40
5.0
 40
5.0
 40
5.0
 40
5.0
 10
125.2681873659733
 20
-282.8972365188657
 30
0.0
 10
125.4581585655591
 20
-282.8973806284454
 30
0.0
 10
125.6461222446483
 20
-282.905804766726
 30
0.0
 10
125.8346244951889
 20
-282.912049101553
 30
0.0
 10
127.5616188434002
 20
-276.2336288831791
 30
0.0
 10
133.186677208365
 20
-271.1108345776066
 30
0.0
 10
140.1247852928319
 20
-270.1157871772339
 30
0.0
 10
140.1247852928319
 20
-270.1157871772339
 30
0.0
 10
131.8858336055591
 20
-244.5867389283031
 30
0.0
 10
131.8858336055591
 20
-244.5867389283031
 30
0.0
 10
131.8858336055591
 20
-244.5867389283031
 30
0.0
 10
119.0879021260693
 20
-284.0372408930147
 30
0.0
 10
119.0879021260693
 20
-284.0372408930147
 30
0.0
 10
121.0089827069698
 20
-283.3018516213321
 30
0.0
 10
123.0914747129552
 20
-282.8955852941187
 30
0.0
 10
125.2681873659733
 20
-282.8972365188657
 30
0.0
  0
SPLINE
  5
9C
330
8F
100
AcDbEntity
  8
Cut
 62
   179
420
  1842203
370
    35
100
AcDbSpline
210
0.0
220
0.0
230
1.0
 70
    11
 71
     3
 72
    17
 73
    13
 74
     0
 42
0.0000000001
 43
0.0000000001
 12
1.0
 22
0.0
 32
0.0
 13
1.0
 23
0.0
 33
0.0
 40
0.0
 40
0.0
 40
0.0
 40
0.0
 40
1.0
 40
1.0
 40
1.0
 40
2.0
 40
2.0
 40
2.0
 40
3.0
 40
3.0
 40
3.0
 40
4.0
 40
4.0
 40
4.0
 40
4.0
 10
113.139849275037
 20
-366.9278223060169
 30
0.0
 10
105.8411694992028
 20
-366.4091873737328
 30
0.0
 10
99.44360223464795
 20
-362.5854326117977
 30
0.0
 10
95.434513296334
 20
-356.9504644607626
 30
0.0
 10
95.434513296334
 20
-356.9504644607626
 30
0.0
 10
90.57954287618114
 20
-371.9162636179357
 30
0.0
 10
90.57954287618114
 20
-371.9162636179357
 30
0.0
 10
90.57954287618114
 20
-371.9162636179357
 30
0.0
 10
114.8494699989206
 20
-371.9346744560457
 30
0.0
 10
114.8494699989206
 20
-371.9346744560457
 30
0.0
 10
114.0191614098117
 20
-370.3980038850887
 30
0.0
 10
113.4297161418043
 20
-368.7129036680553
 30
0.0
 10
113.139849275037
 20
-366.9278223060169
 30
0.0
  0
SPLINE
  5
9D
330
8F
100
AcDbEntity
  8
Cut
 62
   179
420
  1842203
370
    35
100
AcDbSpline
210
0.0
220
0.0
230
1.0
 70
    11
 71
     3
 72
    23
 73
    19
 74
     0
 42
0.0000000001
 43
0.0000000001
 12
1.0
 22
0.0
 32
0.0
 13
1.0
 23
0.0
 33
0.0
 40
0.0
 40
0.0
 40
0.0
 40
0.0
 40
1.0
 40
1.0
 40
1.0
 40
2.0
 40
2.0
 40
2.0
 40
3.0
 40
3.0
 40
3.0
 40
4.0
 40
4.0
 40
4.0
 40
5.0
 40
5.0
 40
5.0
 40
6.0
 40
6.0
 40
6.0
 40
6.0
 10
114.8614034556679
 20
-319.3771098983065
 30
0.0
 10
118.33532523611
 20
-319.3797451683334
 30
0.0
 10
121.6370935380906
 20
-320.1305344003796
 30
0.0
 10
124.6145840894024
 20
-321.4760965449909
 30
0.0
 10
124.6235310779834
 20
-320.0841355870384
 30
0.0
 10
124.871835777928
 20
-318.7483095540381
 30
0.0
 10
125.3207618643568
 20
-317.5074098510526
 30
0.0
 10
125.2943551954901
 20
-317.5075037109837
 30
0.0
 10
125.2683702072705
 20
-317.5093713468304
 30
0.0
 10
125.2419310843407
 20
-317.5093512904698
 30
0.0
 10
119.1937661336241
 20
-317.5047632344275
 30
0.0
 10
113.8660389689486
 20
-314.3798132857149
 30
0.0
 10
110.774512626853
 20
-309.6638497366232
 30
0.0
 10
110.774512626853
 20
-309.6638497366232
 30
0.0
 10
107.2170690972703
 20
-320.6299116068607
 30
0.0
 10
107.2170690972703
 20
-320.6299116068607
 30
0.0
 10
109.6177582951788
 20
-319.815959231082
 30
0.0
 10
112.1889857206201
 20
-319.375082638396
 30
0.0
 10
114.8614034556679
 20
-319.3771098983065
 30
0.0
  0
SPLINE
  5
9E
330
8F
100
AcDbEntity
  8
Cut
 62
   179
420
  1842203
370
    35
100
AcDbSpline
210
0.0
220
0.0
230
1.0
 70
    11
 71
     3
 72
    11
 73
     7
 74
     0
 42
0.0000000001
 43
0.0000000001
 12
1.0
 22
0.0
 32
0.0
 13
1.0
 23
0.0
 33
0.0
 40
0.0
 40
0.0
 40
0.0
 40
0.0
 40
1.0
 40
1.0
 40
1.0
 40
2.0
 40
2.0
 40
2.0
 40
2.0
 10
137.0479306564268
 20
-297.8990348778715
 30
0.0
 10
136.3390597938952
 20
-294.264848423642
 30
0.0
 10
133.9872667896489
 20
-291.2127037339781
 30
0.0
 10
130.7991729113633
 20
-289.5472065540204
 30
0.0
 10
131.5080437738947
 20
-293.1813930082505
 30
0.0
 10
133.8598367781409
 20
-296.2335376979131
 30
0.0
 10
137.0479306564268
 20
-297.8990348778715
 30
0.0
  0
SPLINE
  5
9F
330
8F
100
AcDbEntity
  8
Cut
 62
   179
420
  1842203
370
    35
100
AcDbSpline
210
0.0
220
0.0
230
1.0
 70
    11
 71
     3
 72
    26
 73
    22
 74
     0
 42
0.0000000001
 43
0.0000000001
 12
1.0
 22
0.0
 32
0.0
 13
1.0
 23
0.0
 33
0.0
 40
0.0
 40
0.0
 40
0.0
 40
0.0
 40
1.0
 40
1.0
 40
1.0
 40
2.0
 40
2.0
 40
2.0
 40
3.0
 40
3.0
 40
3.0
 40
4.0
 40
4.0
 40
4.0
 40
5.0
 40
5.0
 40
5.0
 40
6.0
 40
6.0
 40
6.0
 40
7.0
 40
7.0
 40
7.0
 40
7.0
 10
113.1686872481841
 20
-361.6207688606988
 30
0.0
 10
114.471297811685
 20
-354.0938428886283
 30
0.0
 10
121.0470075768406
 20
-348.3521990386242
 30
0.0
 10
128.9393379599226
 20
-348.3581860535943
 30
0.0
 10
130.163135811864
 20
-348.3591144100755
 30
0.0
 10
131.3534225906462
 20
-348.5027724212499
 30
0.0
 10
132.4989412569202
 20
-348.7651204048868
 30
0.0
 10
133.0559685897065
 20
-347.0071206234644
 30
0.0
 10
133.358695799881
 20
-345.1369886900698
 30
0.0
 10
133.360167270267
 20
-343.1972356594201
 30
0.0
 10
133.3679125554091
 20
-332.9870809229092
 30
0.0
 10
125.0675458339146
 20
-324.67411154959
 30
0.0
 10
114.8573910974027
 20
-324.6663662644478
 30
0.0
 10
111.2287557046907
 20
-324.6636136307692
 30
0.0
 10
107.8426263154679
 20
-325.7143314118101
 30
0.0
 10
104.980897416066
 20
-327.5230869386234
 30
0.0
 10
104.980897416066
 20
-327.5230869386234
 30
0.0
 10
97.66218830440383
 20
-350.0834940383386
 30
0.0
 10
97.66218830440383
 20
-350.0834940383386
 30
0.0
 10
100.204982391607
 20
-356.3894897154184
 30
0.0
 10
106.1231792882438
 20
-360.9857985304283
 30
0.0
 10
113.1686872481841
 20
-361.6207688606988
 30
0.0
  0
SPLINE
  5
A0
330
8F
100
AcDbEntity
  8
Cut
 62
   179
420
  1842203
370
    35
100
AcDbSpline
210
0.0
220
0.0
230
1.0
 70
    11
 71
     3
 72
    14
 73
    10
 74
     0
 42
0.0000000001
 43
0.0000000001
 12
1.0
 22
0.0
 32
0.0
 13
1.0
 23
0.0
 33
0.0
 40
0.0
 40
0.0
 40
0.0
 40
0.0
 40
1.0
 40
1.0
 40
1.0
 40
2.0
 40
2.0
 40
2.0
 40
3.0
 40
3.0
 40
3.0
 40
3.0
 10
118.6656997839558
 20
-361.3010959857536
 30
0.0
 10
123.3672163029223
 20
-360.3102417637684
 30
0.0
 10
127.4156035527213
 20
-357.5300606755198
 30
0.0
 10
130.06606090947
 20
-353.7084675235263
 30
0.0
 10
129.6943484510883
 20
-353.6689742718427
 30
0.0
 10
129.3172855092872
 20
-353.6477321693506
 30
0.0
 10
128.9353256016581
 20
-353.6474424197364
 30
0.0
 10
124.0893028274244
 20
-353.6437662924725
 30
0.0
 10
119.9847970761083
 20
-356.8775841503005
 30
0.0
 10
118.6656997839558
 20
-361.3010959857536
 30
0.0
  0
ENDBLK
  5
92
330
8F
100
AcDbEntity
  8
0
100
AcDbBlockEnd
  0
BLOCK
  5
A3
330
A1
100
AcDbEntity
  8
0
100
AcDbBlockBegin
  2
block 6
 70
     0
 10
0.0
 20
0.0
 30
0.0
  3
block 6
  1

  0
SPLINE
  5
A5
330
A1
100
AcDbEntity
  8
Cut
 62
   179
420
  1842203
370
    35
100
AcDbSpline
210
0.0
220
0.0
230
1.0
 70
    11
 71
     3
 72
    20
 73
    16
 74
     0
 42
0.0000000001
 43
0.0000000001
 12
1.0
 22
0.0
 32
0.0
 13
1.0
 23
0.0
 33
0.0
 40
0.0
 40
0.0
 40
0.0
 40
0.0
 40
1.0
 40
1.0
 40
1.0
 40
2.0
 40
2.0
 40
2.0
 40
3.0
 40
3.0
 40
3.0
 40
4.0
 40
4.0
 40
4.0
 40
5.0
 40
5.0
 40
5.0
 40
5.0
 10
83.19810057808333
 20
-324.5004728049036
 30
0.0
 10
85.85239514167682
 20
-324.8978132758507
 30
0.0
 10
88.45216998194385
 20
-325.9145796735158
 30
0.0
 10
90.7705836157191
 20
-327.596444336239
 30
0.0
 10
91.3749989492139
 20
-328.0349100078535
 30
0.0
 10
91.93822342465558
 20
-328.5088210811908
 30
0.0
 10
92.46854466761039
 20
-329.0074459501388
 30
0.0
 10
92.46854466761039
 20
-329.0074459501388
 30
0.0
 10
95.18611550619946
 20
-320.6578424093018
 30
0.0
 10
95.18611550619946
 20
-320.6578424093018
 30
0.0
 10
91.64117070441132
 20
-320.856303455056
 30
0.0
 10
88.0379583291959
 20
-320.2710056389422
 30
0.0
 10
84.65926032197932
 20
-318.851953300713
 30
0.0
 10
84.64902591363465
 20
-320.7841319135466
 30
0.0
 10
84.17138133694586
 20
-322.7264405062688
 30
0.0
 10
83.19810057808333
 20
-324.5004728049036
 30
0.0
  0
SPLINE
  5
A6
330
A1
100
AcDbEntity
  8
Cut
 62
   179
420
  1842203
370
    35
100
AcDbSpline
210
0.0
220
0.0
230
1.0
 70
    11
 71
     3
 72
    32
 73
    28
 74
     0
 42
0.0000000001
 43
0.0000000001
 12
1.0
 22
0.0
 32
0.0
 13
1.0
 23
0.0
 33
0.0
 40
0.0
 40
0.0
 40
0.0
 40
0.0
 40
1.0
 40
1.0
 40
1.0
 40
2.0
 40
2.0
 40
2.0
 40
3.0
 40
3.0
 40
3.0
 40
4.0
 40
4.0
 40
4.0
 40
5.0
 40
5.0
 40
5.0
 40
6.0
 40
6.0
 40
6.0
 40
7.0
 40
7.0
 40
7.0
 40
8.0
 40
8.0
 40
8.0
 40
9.0
 40
9.0
 40
9.0
 40
9.0
 10
59.37644557676494
 20
-289.7745167757503
 30
0.0
 10
63.5309416643395
 20
-292.788344877568
 30
0.0
 10
64.4588770378208
 20
-298.619788967323
 30
0.0
 10
61.44520179805041
 20
-302.7740743379114
 30
0.0
 10
60.64007740099957
 20
-303.8839207009295
 30
0.0
 10
59.63266664606184
 20
-304.7610106388645
 30
0.0
 10
58.51103382598213
 20
-305.39666630708
 30
0.0
 10
60.46149931608873
 20
-307.2056386897513
 30
0.0
 10
62.05135863756276
 20
-309.2877890228144
 30
0.0
 10
63.26222164513074
 20
-311.5418967757888
 30
0.0
 10
65.49050300785507
 20
-308.6191079941472
 30
0.0
 10
68.82984573541098
 20
-307.0060248212195
 30
0.0
 10
72.26311011885356
 20
-306.864617300373
 30
0.0
 10
68.79140264212866
 20
-299.3001469176958
 30
0.0
 10
69.38185255440112
 20
-290.1254213746181
 30
0.0
 10
74.60765178721911
 20
-282.9217714869219
 30
0.0
 10
78.29448370882712
 20
-277.839554360924
 30
0.0
 10
83.63044907464844
 20
-274.6468082460733
 30
0.0
 10
89.35686324488508
 20
-273.5405492898529
 30
0.0
 10
87.6464759463998
 20
-271.5908232866684
 30
0.0
 10
86.43426290444991
 20
-269.3132235464395
 30
0.0
 10
85.74355849309448
 20
-266.8988289109712
 30
0.0
 10
85.74355849309448
 20
-266.8988289109712
 30
0.0
 10
56.36452175467525
 20
-288.3315254550403
 30
0.0
 10
56.36452175467525
 20
-288.3315254550403
 30
0.0
 10
57.41925228044201
 20
-288.6185348478867
 30
0.0
 10
58.44055925515007
 20
-289.0955895516707
 30
0.0
 10
59.37644557676494
 20
-289.7745167757503
 30
0.0
  0
SPLINE
  5
A7
330
A1
100
AcDbEntity
  8
Cut
 62
   179
420
  1842203
370
    35
100
AcDbSpline
210
0.0
220
0.0
230
1.0
 70
    11
 71
     3
 72
    29
 73
    25
 74
     0
 42
0.0000000001
 43
0.0000000001
 12
1.0
 22
0.0
 32
0.0
 13
1.0
 23
0.0
 33
0.0
 40
0.0
 40
0.0
 40
0.0
 40
0.0
 40
1.0
 40
1.0
 40
1.0
 40
2.0
 40
2.0
 40
2.0
 40
3.0
 40
3.0
 40
3.0
 40
4.0
 40
4.0
 40
4.0
 40
5.0
 40
5.0
 40
5.0
 40
6.0
 40
6.0
 40
6.0
 40
7.0
 40
7.0
 40
7.0
 40
8.0
 40
8.0
 40
8.0
 40
8.0
 10
107.2995752887247
 20
-251.1732192244639
 30
0.0
 10
107.2995752887247
 20
-251.1732192244639
 30
0.0
 10
90.43043589345127
 20
-263.4796527602652
 30
0.0
 10
90.43043589345127
 20
-263.4796527602652
 30
0.0
 10
90.79777830005679
 20
-266.7179837235561
 30
0.0
 10
92.46907096271617
 20
-269.7979248838685
 30
0.0
 10
95.30871939993321
 20
-271.8579129254888
 30
0.0
 10
96.42122606489384
 20
-272.6649672058733
 30
0.0
 10
97.62755739391118
 20
-273.2497530211073
 30
0.0
 10
98.87462900372351
 20
-273.6271480317286
 30
0.0
 10
99.31742228958349
 20
-273.7215523155137
 30
0.0
 10
99.75842729667595
 20
-273.8289508089389
 30
0.0
 10
100.1971869633641
 20
-273.9492531489236
 30
0.0
 10
104.4653658871614
 20
-274.7251832176939
 30
0.0
 10
108.996076461753
 20
-273.1531248762832
 30
0.0
 10
111.8219173741447
 20
-269.5452927474368
 30
0.0
 10
111.8219173741447
 20
-269.5452927474368
 30
0.0
 10
114.3667920482303
 20
-261.7262900017556
 30
0.0
 10
114.3667920482303
 20
-261.7262900017556
 30
0.0
 10
114.2422584885963
 20
-258.1497888343613
 30
0.0
 10
112.5356989502613
 20
-254.6634386408921
 30
0.0
 10
109.4212492242326
 20
-252.4040993833417
 30
0.0
 10
108.7446501533666
 20
-251.9132689070442
 30
0.0
 10
108.0334540382314
 20
-251.5039336726716
 30
0.0
 10
107.2995752887247
 20
-251.1732192244639
 30
0.0
  0
SPLINE
  5
A8
330
A1
100
AcDbEntity
  8
Cut
 62
   179
420
  1842203
370
    35
100
AcDbSpline
210
0.0
220
0.0
230
1.0
 70
    11
 71
     3
 72
    17
 73
    13
 74
     0
 42
0.0000000001
 43
0.0000000001
 12
1.0
 22
0.0
 32
0.0
 13
1.0
 23
0.0
 33
0.0
 40
0.0
 40
0.0
 40
0.0
 40
0.0
 40
1.0
 40
1.0
 40
1.0
 40
2.0
 40
2.0
 40
2.0
 40
3.0
 40
3.0
 40
3.0
 40
4.0
 40
4.0
 40
4.0
 40
4.0
 10
50.65838858954056
 20
-294.9489133336469
 30
0.0
 10
49.35737971479076
 20
-296.7423255978662
 30
0.0
 10
49.75802517032803
 20
-299.2601103925264
 30
0.0
 10
51.55143743454739
 20
-300.5611192672762
 30
0.0
 10
53.34506041575162
 20
-301.8622810040707
 30
0.0
 10
55.86284521041182
 20
-301.4616355485341
 30
0.0
 10
57.1638540851613
 20
-299.6682232843148
 30
0.0
 10
58.46486295991112
 20
-297.874811020096
 30
0.0
 10
58.06421750437416
 20
-295.3570262254358
 30
0.0
 10
56.27059452316929
 20
-294.0558644886401
 30
0.0
 10
54.47718225894993
 20
-292.7548556138909
 30
0.0
 10
51.95939746428941
 20
-293.1555010694282
 30
0.0
 10
50.65838858954056
 20
-294.9489133336469
 30
0.0
  0
SPLINE
  5
A9
330
A1
100
AcDbEntity
  8
Cut
 62
   179
420
  1842203
370
    35
100
AcDbSpline
210
0.0
220
0.0
230
1.0
 70
    11
 71
     3
 72
    20
 73
    16
 74
     0
 42
0.0000000001
 43
0.0000000001
 12
1.0
 22
0.0
 32
0.0
 13
1.0
 23
0.0
 33
0.0
 40
0.0
 40
0.0
 40
0.0
 40
0.0
 40
1.0
 40
1.0
 40
1.0
 40
2.0
 40
2.0
 40
2.0
 40
3.0
 40
3.0
 40
3.0
 40
4.0
 40
4.0
 40
4.0
 40
5.0
 40
5.0
 40
5.0
 40
5.0
 10
53.18310099790227
 20
-307.8514988983228
 30
0.0
 10
44.91857010671105
 20
-301.8560965864273
 30
0.0
 10
33.31712678355945
 20
-303.7021898486279
 30
0.0
 10
27.32157160961759
 20
-311.966931456805
 30
0.0
 10
23.71247003847466
 20
-316.9419989956379
 30
0.0
 10
22.94892910611711
 20
-323.1250799747289
 30
0.0
 10
24.71254983328502
 20
-328.5677440631834
 30
0.0
 10
24.71254983328502
 20
-328.5677440631834
 30
0.0
 10
42.32712016685149
 20
-341.3460175176972
 30
0.0
 10
42.32712016685149
 20
-341.3460175176972
 30
0.0
 10
48.04837748425291
 20
-341.3331661703984
 30
0.0
 10
53.689068406209
 20
-338.6881536803816
 30
0.0
 10
57.29816997735257
 20
-333.713086141548
 30
0.0
 10
63.29372515129411
 20
-325.4483445333703
 30
0.0
 10
61.4476318890938
 20
-313.8469012102196
 30
0.0
 10
53.18310099790227
 20
-307.8514988983228
 30
0.0
  0
SPLINE
  5
AA
330
A1
100
AcDbEntity
  8
Cut
 62
   179
420
  1842203
370
    35
100
AcDbSpline
210
0.0
220
0.0
230
1.0
 70
    11
 71
     3
 72
    17
 73
    13
 74
     0
 42
0.0000000001
 43
0.0000000001
 12
1.0
 22
0.0
 32
0.0
 13
1.0
 23
0.0
 33
0.0
 40
0.0
 40
0.0
 40
0.0
 40
0.0
 40
1.0
 40
1.0
 40
1.0
 40
2.0
 40
2.0
 40
2.0
 40
3.0
 40
3.0
 40
3.0
 40
4.0
 40
4.0
 40
4.0
 40
4.0
 10
112.5271002778296
 20
-248.1227516704519
 30
0.0
 10
114.4492211107991
 20
-249.5171305937633
 30
0.0
 10
115.9992219984347
 20
-251.2362747942462
 30
0.0
 10
117.1579121009515
 20
-253.15072452398
 30
0.0
 10
117.1579121009515
 20
-253.15072452398
 30
0.0
 10
121.0715667768249
 20
-241.1262407078823
 30
0.0
 10
121.0715667768249
 20
-241.1262407078823
 30
0.0
 10
121.0715667768249
 20
-241.1262407078823
 30
0.0
 10
111.9885179217213
 20
-247.7525261881555
 30
0.0
 10
111.9885179217213
 20
-247.7525261881555
 30
0.0
 10
112.1690627821893
 20
-247.8734700602871
 30
0.0
 10
112.3497555948451
 20
-247.9940991508636
 30
0.0
 10
112.5271002778296
 20
-248.1227516704519
 30
0.0
  0
SPLINE
  5
AB
330
A1
100
AcDbEntity
  8
Cut
 62
   179
420
  1842203
370
    35
100
AcDbSpline
210
0.0
220
0.0
230
1.0
 70
    11
 71
     3
 72
    14
 73
    10
 74
     0
 42
0.0000000001
 43
0.0000000001
 12
1.0
 22
0.0
 32
0.0
 13
1.0
 23
0.0
 33
0.0
 40
0.0
 40
0.0
 40
0.0
 40
0.0
 40
1.0
 40
1.0
 40
1.0
 40
2.0
 40
2.0
 40
2.0
 40
3.0
 40
3.0
 40
3.0
 40
3.0
 10
44.7965406822524
 20
-299.1692334194827
 30
0.0
 10
44.64489508304266
 20
-298.424890674824
 30
0.0
 10
44.58537483115766
 20
-297.6628361969588
 30
0.0
 10
44.6174527406744
 20
-296.9012805585579
 30
0.0
 10
44.6174527406744
 20
-296.9012805585579
 30
0.0
 10
41.6678192246836
 20
-299.0530942539321
 30
0.0
 10
41.6678192246836
 20
-299.0530942539321
 30
0.0
 10
42.70961315379805
 20
-299.0238035800784
 30
0.0
 10
43.75487890250224
 20
-299.061574376623
 30
0.0
 10
44.7965406822524
 20
-299.1692334194827
 30
0.0
  0
SPLINE
  5
AC
330
A1
100
AcDbEntity
  8
Cut
 62
   179
420
  1842203
370
    35
100
AcDbSpline
210
0.0
220
0.0
230
1.0
 70
    11
 71
     3
 72
    20
 73
    16
 74
     0
 42
0.0000000001
 43
0.0000000001
 12
1.0
 22
0.0
 32
0.0
 13
1.0
 23
0.0
 33
0.0
 40
0.0
 40
0.0
 40
0.0
 40
0.0
 40
1.0
 40
1.0
 40
1.0
 40
2.0
 40
2.0
 40
2.0
 40
3.0
 40
3.0
 40
3.0
 40
4.0
 40
4.0
 40
4.0
 40
5.0
 40
5.0
 40
5.0
 40
5.0
 10
73.55220273782277
 20
-351.3316055912759
 30
0.0
 10
76.89276495918267
 20
-353.7549753782204
 30
0.0
 10
81.07318021963266
 20
-354.2033180916367
 30
0.0
 10
84.69164664336499
 20
-352.9015260752183
 30
0.0
 10
84.69164664336499
 20
-352.9015260752183
 30
0.0
 10
90.56054293450613
 20
-334.8696600739587
 30
0.0
 10
90.56054293450613
 20
-334.8696600739587
 30
0.0
 10
89.79799232242247
 20
-333.7404354085918
 30
0.0
 10
88.8299579829115
 20
-332.7230905026822
 30
0.0
 10
87.66473256212282
 20
-331.8777920491287
 30
0.0
 10
82.30135312831108
 20
-327.9869943885724
 30
0.0
 10
74.77235853945558
 20
-329.1850544742409
 30
0.0
 10
70.88156087889857
 20
-334.5484339080523
 30
0.0
 10
66.99076321834124
 20
-339.9118133418637
 30
0.0
 10
68.18882330401102
 20
-347.4408079307195
 30
0.0
 10
73.55220273782277
 20
-351.3316055912759
 30
0.0
  0
SPLINE
  5
AD
330
A1
100
AcDbEntity
  8
Cut
 62
   179
420
  1842203
370
    35
100
AcDbSpline
210
0.0
220
0.0
230
1.0
 70
    11
 71
     3
 72
    32
 73
    28
 74
     0
 42
0.0000000001
 43
0.0000000001
 12
1.0
 22
0.0
 32
0.0
 13
1.0
 23
0.0
 33
0.0
 40
0.0
 40
0.0
 40
0.0
 40
0.0
 40
1.0
 40
1.0
 40
1.0
 40
2.0
 40
2.0
 40
2.0
 40
3.0
 40
3.0
 40
3.0
 40
4.0
 40
4.0
 40
4.0
 40
5.0
 40
5.0
 40
5.0
 40
6.0
 40
6.0
 40
6.0
 40
7.0
 40
7.0
 40
7.0
 40
8.0
 40
8.0
 40
8.0
 40
9.0
 40
9.0
 40
9.0
 40
9.0
 10
70.44635168422647
 20
-355.6129533041676
 30
0.0
 10
62.72209914404601
 20
-350.0094892785887
 30
0.0
 10
60.99674914043091
 20
-339.1668353946362
 30
0.0
 10
66.60021316600947
 20
-331.4425828544563
 30
0.0
 10
67.04388570106943
 20
-330.8309899736392
 30
0.0
 10
67.52375949280987
 20
-330.261457885436
 30
0.0
 10
68.02897976278732
 20
-329.7257302137612
 30
0.0
 10
67.23540544170534
 20
-329.3842330449061
 30
0.0
 10
66.4663641068226
 20
-328.9540000886137
 30
0.0
 10
65.73845544996936
 20
-328.4259477040789
 30
0.0
 10
65.65538027840702
 20
-328.3656818423863
 30
0.0
 10
65.57634414569272
 20
-328.3019540753239
 30
0.0
 10
65.49528849355487
 20
-328.2399572609467
 30
0.0
 10
64.79902763181536
 20
-331.2476765437937
 30
0.0
 10
63.50337252589103
 20
-334.1669454033932
 30
0.0
 10
61.57951769024103
 20
-336.8189371951446
 30
0.0
 10
58.25178737666407
 20
-341.4061406125942
 30
0.0
 10
53.58041394775272
 20
-344.4537689625211
 30
0.0
 10
48.49123731565436
 20
-345.8177005074858
 30
0.0
 10
48.49123731565436
 20
-345.8177005074858
 30
0.0
 10
79.64217461380322
 20
-368.4157649292798
 30
0.0
 10
79.64217461380322
 20
-368.4157649292798
 30
0.0
 10
79.64217461380322
 20
-368.4157649292798
 30
0.0
 10
82.78458888331873
 20
-358.7608872950353
 30
0.0
 10
82.78458888331873
 20
-358.7608872950353
 30
0.0
 10
78.56886084256804
 20
-359.2968998374603
 30
0.0
 10
74.14953149813586
 20
-358.2993795647691
 30
0.0
 10
70.44635168422647
 20
-355.6129533041676
 30
0.0
  0
SPLINE
  5
AE
330
A1
100
AcDbEntity
  8
Cut
 62
   179
420
  1842203
370
    35
100
AcDbSpline
210
0.0
220
0.0
230
1.0
 70
    11
 71
     3
 72
    14
 73
    10
 74
     0
 42
0.0000000001
 43
0.0000000001
 12
1.0
 22
0.0
 32
0.0
 13
1.0
 23
0.0
 33
0.0
 40
0.0
 40
0.0
 40
0.0
 40
0.0
 40
1.0
 40
1.0
 40
1.0
 40
2.0
 40
2.0
 40
2.0
 40
3.0
 40
3.0
 40
3.0
 40
3.0
 10
19.83879091894674
 20
-314.9778782620547
 30
0.0
 10
19.83879091894674
 20
-314.9778782620547
 30
0.0
 10
12.92846581129962
 20
-320.019125210021
 30
0.0
 10
12.92846581129962
 20
-320.019125210021
 30
0.0
 10
12.92846581129962
 20
-320.019125210021
 30
0.0
 10
18.54843268448086
 20
-324.0960610733941
 30
0.0
 10
18.54843268448086
 20
-324.0960610733941
 30
0.0
 10
18.38391453409217
 20
-321.0383740976923
 30
0.0
 10
18.80451274905112
 20
-317.9387795212552
 30
0.0
 10
19.83879091894674
 20
-314.9778782620547
 30
0.0
  0
SPLINE
  5
AF
330
A1
100
AcDbEntity
  8
Cut
 62
   179
420
  1842203
370
    35
100
AcDbSpline
210
0.0
220
0.0
230
1.0
 70
    11
 71
     3
 72
    23
 73
    19
 74
     0
 42
0.0000000001
 43
0.0000000001
 12
1.0
 22
0.0
 32
0.0
 13
1.0
 23
0.0
 33
0.0
 40
0.0
 40
0.0
 40
0.0
 40
0.0
 40
1.0
 40
1.0
 40
1.0
 40
2.0
 40
2.0
 40
2.0
 40
3.0
 40
3.0
 40
3.0
 40
4.0
 40
4.0
 40
4.0
 40
5.0
 40
5.0
 40
5.0
 40
6.0
 40
6.0
 40
6.0
 40
6.0
 10
78.11317962124865
 20
-322.6694933033731
 30
0.0
 10
79.9716763782926
 20
-320.1075961927655
 30
0.0
 10
79.72627101063011
 20
-316.6521342198905
 30
0.0
 10
77.71001455639491
 20
-314.3747299786425
 30
0.0
 10
77.45503286869432
 20
-314.1391635521176
 30
0.0
 10
77.206332863813
 20
-313.8989279404854
 30
0.0
 10
76.9636935086368
 20
-313.6542447085308
 30
0.0
 10
76.85816448381578
 20
-313.5672979882427
 30
0.0
 10
76.75043776598834
 20
-313.4821338717977
 30
0.0
 10
76.63828365041583
 20
-313.4007730477364
 30
0.0
 10
73.67623498420569
 20
-311.2519912650608
 30
0.0
 10
69.51813446047079
 20
-311.9134674903106
 30
0.0
 10
67.36935267779461
 20
-314.8755161565219
 30
0.0
 10
65.22057089511938
 20
-317.8375648227334
 30
0.0
 10
65.88225783735425
 20
-321.9958182085143
 30
0.0
 10
68.84430650356502
 20
-324.1445999911892
 30
0.0
 10
71.80635516977708
 20
-326.293381773866
 30
0.0
 10
75.96439783857247
 20
-325.6315419695845
 30
0.0
 10
78.11317962124865
 20
-322.6694933033731
 30
0.0
  0
SPLINE
  5
B0
330
A1
100
AcDbEntity
  8
Cut
 62
   179
420
  1842203
370
    35
100
AcDbSpline
210
0.0
220
0.0
230
1.0
 70
    11
 71
     3
 72
    32
 73
    28
 74
     0
 42
0.0000000001
 43
0.0000000001
 12
1.0
 22
0.0
 32
0.0
 13
1.0
 23
0.0
 33
0.0
 40
0.0
 40
0.0
 40
0.0
 40
0.0
 40
1.0
 40
1.0
 40
1.0
 40
2.0
 40
2.0
 40
2.0
 40
3.0
 40
3.0
 40
3.0
 40
4.0
 40
4.0
 40
4.0
 40
5.0
 40
5.0
 40
5.0
 40
6.0
 40
6.0
 40
6.0
 40
7.0
 40
7.0
 40
7.0
 40
8.0
 40
8.0
 40
8.0
 40
9.0
 40
9.0
 40
9.0
 40
9.0
 10
96.98104748383291
 20
-315.1430113745935
 30
0.0
 10
96.98104748383291
 20
-315.1430113745935
 30
0.0
 10
107.126919266669
 20
-283.9704054885697
 30
0.0
 10
107.126919266669
 20
-283.9704054885697
 30
0.0
 10
106.4045905560503
 20
-283.2309230596186
 30
0.0
 10
105.6147634407937
 20
-282.5394599200703
 30
0.0
 10
104.7503760263466
 20
-281.9124006990228
 30
0.0
 10
102.9441758750659
 20
-280.6021150088476
 30
0.0
 10
100.9785603972042
 20
-279.6664962642416
 30
0.0
 10
98.94694279845312
 20
-279.0904353390654
 30
0.0
 10
98.49495786833957
 20
-279.0000565851518
 30
0.0
 10
98.0448146232351
 20
-278.8953354262119
 30
0.0
 10
97.5985713487839
 20
-278.7679760500548
 30
0.0
 10
90.69837858835585
 20
-277.3627475408958
 30
0.0
 10
83.28622911954658
 20
-279.9661377335008
 30
0.0
 10
78.88899950010726
 20
-286.0276225405172
 30
0.0
 10
73.52451617592428
 20
-293.4224454133763
 30
0.0
 10
74.44245555428422
 20
-303.4856842410369
 30
0.0
 10
80.61447457716439
 20
-309.817275228698
 30
0.0
 10
80.9046491400107
 20
-310.0720201184287
 30
0.0
 10
81.17919529749904
 20
-310.338804518933
 30
0.0
 10
81.43916473844887
 20
-310.6158184939147
 30
0.0
 10
81.93276484681634
 20
-311.0628194776531
 30
0.0
 10
82.45311740545716
 20
-311.4892074928177
 30
0.0
 10
83.00422134160324
 20
-311.8889990667572
 30
0.0
 10
87.19414422237642
 20
-314.9285271000818
 30
0.0
 10
92.2411058353256
 20
-315.9489724494202
 30
0.0
 10
96.98104748383291
 20
-315.1430113745935
 30
0.0
  0
ENDBLK
  5
A4
330
A1
100
AcDbEntity
  8
0
100
AcDbBlockEnd
  0
BLOCK
  5
B3
330
B1
100
AcDbEntity
  8
0
100
AcDbBlockBegin
  2
block 7
 70
     0
 10
0.0
 20
0.0
 30
0.0
  3
block 7
  1

  0
SPLINE
  5
B5
330
B1
100
AcDbEntity
  8
Cut
 62
   179
420
  1842203
370
    35
100
AcDbSpline
210
0.0
220
0.0
230
1.0
 70
    11
 71
     3
 72
    26
 73
    22
 74
     0
 42
0.0000000001
 43
0.0000000001
 12
1.0
 22
0.0
 32
0.0
 13
1.0
 23
0.0
 33
0.0
 40
0.0
 40
0.0
 40
0.0
 40
0.0
 40
1.0
 40
1.0
 40
1.0
 40
2.0
 40
2.0
 40
2.0
 40
3.0
 40
3.0
 40
3.0
 40
4.0
 40
4.0
 40
4.0
 40
5.0
 40
5.0
 40
5.0
 40
6.0
 40
6.0
 40
6.0
 40
7.0
 40
7.0
 40
7.0
 40
7.0
 10
224.0623096878386
 20
-305.4886243130151
 30
0.0
 10
224.5570661105156
 20
-304.2355511416528
 30
0.0
 10
224.9372408257655
 20
-302.9428392177221
 30
0.0
 10
225.204067940922
 20
-301.6279951898346
 30
0.0
 10
225.204067940922
 20
-301.6279951898346
 30
0.0
 10
191.9158522080237
 20
-277.208200441506
 30
0.0
 10
191.9158522080237
 20
-277.208200441506
 30
0.0
 10
191.1326520639993
 20
-277.6423997509153
 30
0.0
 10
190.3648022671746
 20
-278.1212376820788
 30
0.0
 10
189.6208647859085
 20
-278.6579175737991
 30
0.0
 10
179.4486347121907
 20
-285.9962107395726
 30
0.0
 10
177.1429951208191
 20
-300.242454378029
 30
0.0
 10
184.4812882865925
 20
-310.4146844517473
 30
0.0
 10
188.262520817066
 20
-315.6561713197862
 30
0.0
 10
193.8787470060722
 20
-318.802517980735
 30
0.0
 10
199.8257541820759
 20
-319.6235192511276
 30
0.0
 10
200.2928807904351
 20
-314.8464698136939
 30
0.0
 10
202.7241517068159
 20
-310.2836462474634
 30
0.0
 10
206.9136360284064
 20
-307.2613331516686
 30
0.0
 10
212.0779186005441
 20
-303.5357961523472
 30
0.0
 10
218.6204864736583
 20
-303.0816603728785
 30
0.0
 10
224.0623096878386
 20
-305.4886243130151
 30
0.0
  0
SPLINE
  5
B6
330
B1
100
AcDbEntity
  8
Cut
 62
   179
420
  1842203
370
    35
100
AcDbSpline
210
0.0
220
0.0
230
1.0
 70
    11
 71
     3
 72
    20
 73
    16
 74
     0
 42
0.0000000001
 43
0.0000000001
 12
1.0
 22
0.0
 32
0.0
 13
1.0
 23
0.0
 33
0.0
 40
0.0
 40
0.0
 40
0.0
 40
0.0
 40
1.0
 40
1.0
 40
1.0
 40
2.0
 40
2.0
 40
2.0
 40
3.0
 40
3.0
 40
3.0
 40
4.0
 40
4.0
 40
4.0
 40
5.0
 40
5.0
 40
5.0
 40
5.0
 10
186.8188274391929
 20
-339.836172944302
 30
0.0
 10
192.1924892229778
 20
-335.9595888268212
 30
0.0
 10
193.4104786275224
 20
-328.4337925700576
 30
0.0
 10
189.5338945100416
 20
-323.0601307862714
 30
0.0
 10
185.657310392562
 20
-317.6864690024865
 30
0.0
 10
178.1315141357984
 20
-316.468479597942
 30
0.0
 10
172.7578523520122
 20
-320.3450637154227
 30
0.0
 10
171.3632400733713
 20
-321.3511433733815
 30
0.0
 10
170.2513078673342
 20
-322.6042921881792
 30
0.0
 10
169.4329061365025
 20
-324.0005250181997
 30
0.0
 10
169.4329061365025
 20
-324.0005250181997
 30
0.0
 10
174.9421484939034
 20
-341.0809379302748
 30
0.0
 10
174.9421484939034
 20
-341.0809379302748
 30
0.0
 10
178.7146877269063
 20
-342.7368191782938
 30
0.0
 10
183.2427550656161
 20
-342.4159678633268
 30
0.0
 10
186.8188274391929
 20
-339.836172944302
 30
0.0
  0
SPLINE
  5
B7
330
B1
100
AcDbEntity
  8
Cut
 62
   179
420
  1842203
370
    35
100
AcDbSpline
210
0.0
220
0.0
230
1.0
 70
    11
 71
     3
 72
    29
 73
    25
 74
     0
 42
0.0000000001
 43
0.0000000001
 12
1.0
 22
0.0
 32
0.0
 13
1.0
 23
0.0
 33
0.0
 40
0.0
 40
0.0
 40
0.0
 40
0.0
 40
1.0
 40
1.0
 40
1.0
 40
2.0
 40
2.0
 40
2.0
 40
3.0
 40
3.0
 40
3.0
 40
4.0
 40
4.0
 40
4.0
 40
5.0
 40
5.0
 40
5.0
 40
6.0
 40
6.0
 40
6.0
 40
7.0
 40
7.0
 40
7.0
 40
8.0
 40
8.0
 40
8.0
 40
8.0
 10
177.1509876225612
 20
-286.0999748507149
 30
0.0
 10
176.763957296374
 20
-286.4680754271127
 30
0.0
 10
176.3503921313583
 20
-286.8163577726735
 30
0.0
 10
175.9054019288365
 20
-287.1373757341564
 30
0.0
 10
174.9651747354168
 20
-287.8156599194072
 30
0.0
 10
173.9577943945546
 20
-288.3335021792835
 30
0.0
 10
172.9163584562635
 20
-288.7025758190336
 30
0.0
 10
174.8372244067769
 20
-292.6884396356631
 30
0.0
 10
173.6876366854257
 20
-297.6105046785665
 30
0.0
 10
169.9770802606071
 20
-300.287317005473
 30
0.0
 10
167.6621389389863
 20
-301.9573262322116
 30
0.0
 10
164.8319865180536
 20
-302.4050176214116
 30
0.0
 10
162.2588844412299
 20
-301.7588601495743
 30
0.0
 10
162.2588844412299
 20
-301.7588601495743
 30
0.0
 10
167.4758470952227
 20
-317.9329873866661
 30
0.0
 10
167.4758470952227
 20
-317.9329873866661
 30
0.0
 10
168.1422870127019
 20
-317.2587357661069
 30
0.0
 10
168.869506140811
 20
-316.6281887196181
 30
0.0
 10
169.6633473388916
 20
-316.0555080589987
 30
0.0
 10
172.6986597646653
 20
-313.865819832462
 30
0.0
 10
176.2105185165313
 20
-312.809701378561
 30
0.0
 10
179.6952290611197
 20
-312.7956925206352
 30
0.0
 10
174.2006038618681
 20
-304.6658697991485
 30
0.0
 10
173.5425939061693
 20
-294.5904280938594
 30
0.0
 10
177.1509876225612
 20
-286.0999748507149
 30
0.0
  0
SPLINE
  5
B8
330
B1
100
AcDbEntity
  8
Cut
 62
   179
420
  1842203
370
    35
100
AcDbSpline
210
0.0
220
0.0
230
1.0
 70
    11
 71
     3
 72
    17
 73
    13
 74
     0
 42
0.0000000001
 43
0.0000000001
 12
1.0
 22
0.0
 32
0.0
 13
1.0
 23
0.0
 33
0.0
 40
0.0
 40
0.0
 40
0.0
 40
0.0
 40
1.0
 40
1.0
 40
1.0
 40
2.0
 40
2.0
 40
2.0
 40
3.0
 40
3.0
 40
3.0
 40
4.0
 40
4.0
 40
4.0
 40
4.0
 10
221.54938763005
 20
-310.1650807747001
 30
0.0
 10
217.8462362622223
 20
-308.6714599343957
 30
0.0
 10
213.4788112760421
 20
-309.0471314728755
 30
0.0
 10
210.008141041527
 20
-311.5508888080926
 30
0.0
 10
207.2160663512912
 20
-313.5651042229221
 30
0.0
 10
205.5490519420608
 20
-316.5649786826439
 30
0.0
 10
205.1325112372651
 20
-319.7357767526705
 30
0.0
 10
209.0155655377117
 20
-319.3643440639
 30
0.0
 10
212.8524991039459
 20
-317.9962955395633
 30
0.0
 10
216.2379028609174
 20
-315.5540498301048
 30
0.0
 10
218.3568975419421
 20
-314.0253974035102
 30
0.0
 10
220.1291800187988
 20
-312.1939534594267
 30
0.0
 10
221.54938763005
 20
-310.1650807747001
 30
0.0
  0
SPLINE
  5
B9
330
B1
100
AcDbEntity
  8
Cut
 62
   179
420
  1842203
370
    35
100
AcDbSpline
210
0.0
220
0.0
230
1.0
 70
    11
 71
     3
 72
    20
 73
    16
 74
     0
 42
0.0000000001
 43
0.0000000001
 12
1.0
 22
0.0
 32
0.0
 13
1.0
 23
0.0
 33
0.0
 40
0.0
 40
0.0
 40
0.0
 40
0.0
 40
1.0
 40
1.0
 40
1.0
 40
2.0
 40
2.0
 40
2.0
 40
3.0
 40
3.0
 40
3.0
 40
4.0
 40
4.0
 40
4.0
 40
5.0
 40
5.0
 40
5.0
 40
5.0
 10
213.7569558902925
 20
-339.8624724397774
 30
0.0
 10
211.6160238610855
 20
-336.894745111184
 30
0.0
 10
207.4595369097314
 20
-336.2220512334668
 30
0.0
 10
204.4918095811393
 20
-338.3629832626738
 30
0.0
 10
201.5240822525472
 20
-340.5039152918815
 30
0.0
 10
200.8513883748307
 20
-344.660402243235
 30
0.0
 10
202.9923204040364
 20
-347.6281295718277
 30
0.0
 10
204.4030803074162
 20
-349.5837034350899
 30
0.0
 10
206.6888951479364
 20
-350.5420560377972
 30
0.0
 10
208.9331554229302
 20
-350.356111866785
 30
0.0
 10
208.9331554229302
 20
-350.356111866785
 30
0.0
 10
214.4718082366158
 20
-346.3605024678918
 30
0.0
 10
214.4718082366158
 20
-346.3605024678918
 30
0.0
 10
215.3561494614025
 20
-344.2894592489321
 30
0.0
 10
215.1677157936711
 20
-341.8180463030401
 30
0.0
 10
213.7569558902925
 20
-339.8624724397774
 30
0.0
  0
SPLINE
  5
BA
330
B1
100
AcDbEntity
  8
Cut
 62
   179
420
  1842203
370
    35
100
AcDbSpline
210
0.0
220
0.0
230
1.0
 70
    11
 71
     3
 72
    23
 73
    19
 74
     0
 42
0.0000000001
 43
0.0000000001
 12
1.0
 22
0.0
 32
0.0
 13
1.0
 23
0.0
 33
0.0
 40
0.0
 40
0.0
 40
0.0
 40
0.0
 40
1.0
 40
1.0
 40
1.0
 40
2.0
 40
2.0
 40
2.0
 40
3.0
 40
3.0
 40
3.0
 40
4.0
 40
4.0
 40
4.0
 40
5.0
 40
5.0
 40
5.0
 40
6.0
 40
6.0
 40
6.0
 40
6.0
 10
207.2930739706771
 20
-328.3269309661225
 30
0.0
 10
211.1696580881592
 20
-333.700592749908
 30
0.0
 10
218.6954543449215
 20
-334.9185821544526
 30
0.0
 10
224.0691161287077
 20
-331.0419980369718
 30
0.0
 10
229.4427779124939
 20
-327.1654139194916
 30
0.0
 10
230.6607673170372
 20
-319.639617662728
 30
0.0
 10
226.7841831995564
 20
-314.2659558789418
 30
0.0
 10
226.5076854908876
 20
-313.8826789719137
 30
0.0
 10
226.2107299266302
 20
-313.5230479623968
 30
0.0
 10
225.8992127259917
 20
-313.1823879870163
 30
0.0
 10
224.1462356653202
 20
-315.6917863167142
 30
0.0
 10
221.9517856193491
 20
-317.953974435353
 30
0.0
 10
219.332407874038
 20
-319.8436054865301
 30
0.0
 10
215.1496794231533
 20
-322.8610448663864
 30
0.0
 10
210.4080175184854
 20
-324.5537332576411
 30
0.0
 10
205.6101822189456
 20
-325.0066628659863
 30
0.0
 10
205.9856212031992
 20
-326.1658253966723
 30
0.0
 10
206.5427977666072
 20
-327.2869095341291
 30
0.0
 10
207.2930739706771
 20
-328.3269309661225
 30
0.0
  0
SPLINE
  5
BB
330
B1
100
AcDbEntity
  8
Cut
 62
   179
420
  1842203
370
    35
100
AcDbSpline
210
0.0
220
0.0
230
1.0
 70
    11
 71
     3
 72
    35
 73
    31
 74
     0
 42
0.0000000001
 43
0.0000000001
 12
1.0
 22
0.0
 32
0.0
 13
1.0
 23
0.0
 33
0.0
 40
0.0
 40
0.0
 40
0.0
 40
0.0
 40
1.0
 40
1.0
 40
1.0
 40
2.0
 40
2.0
 40
2.0
 40
3.0
 40
3.0
 40
3.0
 40
4.0
 40
4.0
 40
4.0
 40
5.0
 40
5.0
 40
5.0
 40
6.0
 40
6.0
 40
6.0
 40
7.0
 40
7.0
 40
7.0
 40
8.0
 40
8.0
 40
8.0
 40
9.0
 40
9.0
 40
9.0
 40
10.0
 40
10.0
 40
10.0
 40
10.0
 10
198.7027647476124
 20
-350.7226345849477
 30
0.0
 10
194.8554229257589
 20
-345.3895080253985
 30
0.0
 10
196.0641780084696
 20
-337.9207694281052
 30
0.0
 10
201.39730456802
 20
-334.0734276062511
 30
0.0
 10
202.2167969626869
 20
-333.4822420554307
 30
0.0
 10
203.0869831455981
 20
-333.0115519005902
 30
0.0
 10
203.9864053604559
 20
-332.6557516052458
 30
0.0
 10
203.6442610680029
 20
-332.2620134911472
 30
0.0
 10
203.3145127935444
 20
-331.8525317836127
 30
0.0
 10
203.0035183142531
 20
-331.4214359792425
 30
0.0
 10
201.5700842089938
 20
-329.4344314831254
 30
0.0
 10
200.6237878182691
 20
-327.2426775799816
 30
0.0
 10
200.1348027231668
 20
-324.988485046323
 30
0.0
 10
198.7703155182474
 20
-324.8509600988019
 30
0.0
 10
197.4171501674998
 20
-324.6143862328107
 30
0.0
 10
196.0865948894834
 20
-324.2804505015619
 30
0.0
 10
198.6019889639926
 20
-331.3464797027936
 30
0.0
 10
196.294832916819
 20
-339.5220850627131
 30
0.0
 10
189.9133324523122
 20
-344.125728600726
 30
0.0
 10
186.0060904635413
 20
-346.9444307904565
 30
0.0
 10
181.3093760874324
 20
-347.8903830087711
 30
0.0
 10
176.8973684444815
 20
-347.1427003093098
 30
0.0
 10
176.8973684444815
 20
-347.1427003093098
 30
0.0
 10
183.7854295442095
 20
-368.4977960022388
 30
0.0
 10
183.7854295442095
 20
-368.4977960022388
 30
0.0
 10
183.7854295442095
 20
-368.4977960022388
 30
0.0
 10
203.2035437013206
 20
-354.4894798927268
 30
0.0
 10
203.2035437013206
 20
-354.4894798927268
 30
0.0
 10
201.4661877136391
 20
-353.6569405553746
 30
0.0
 10
199.9070104571126
 20
-352.3919416221008
 30
0.0
 10
198.7027647476124
 20
-350.7226345849477
 30
0.0
  0
SPLINE
  5
BC
330
B1
100
AcDbEntity
  8
Cut
 62
   179
420
  1842203
370
    35
100
AcDbSpline
210
0.0
220
0.0
230
1.0
 70
    11
 71
     3
 72
    23
 73
    19
 74
     0
 42
0.0000000001
 43
0.0000000001
 12
1.0
 22
0.0
 32
0.0
 13
1.0
 23
0.0
 33
0.0
 40
0.0
 40
0.0
 40
0.0
 40
0.0
 40
1.0
 40
1.0
 40
1.0
 40
2.0
 40
2.0
 40
2.0
 40
3.0
 40
3.0
 40
3.0
 40
4.0
 40
4.0
 40
4.0
 40
5.0
 40
5.0
 40
5.0
 40
6.0
 40
6.0
 40
6.0
 40
6.0
 10
166.8825752474865
 20
-295.9977613490497
 30
0.0
 10
168.6794257343371
 20
-294.7015052132738
 30
0.0
 10
169.0867357897001
 20
-292.1847899786756
 30
0.0
 10
167.7904796539254
 20
-290.387939491825
 30
0.0
 10
167.3420121168803
 20
-289.7662806313285
 30
0.0
 10
166.7458698280018
 20
-289.3152935215594
 30
0.0
 10
166.0856065629462
 20
-289.0392819650448
 30
0.0
 10
165.7734526817424
 20
-288.9628777546315
 30
0.0
 10
165.4644528664253
 20
-288.8738260846297
 30
0.0
 10
165.1589073906173
 20
-288.7724319506957
 30
0.0
 10
164.1472720284202
 20
-288.6124363663379
 30
0.0
 10
163.074860620934
 20
-288.8349530899592
 30
0.0
 10
162.1806577967014
 20
-289.4800350853848
 30
0.0
 10
160.3838073098495
 20
-290.7762912211601
 30
0.0
 10
159.9764972544878
 20
-293.2930064557602
 30
0.0
 10
161.2727533902625
 20
-295.0898569426108
 30
0.0
 10
162.5690095260358
 20
-296.8867074294607
 30
0.0
 10
165.0857247606359
 20
-297.2940174848237
 30
0.0
 10
166.8825752474865
 20
-295.9977613490497
 30
0.0
  0
SPLINE
  5
BD
330
B1
100
AcDbEntity
  8
Cut
 62
   179
420
  1842203
370
    35
100
AcDbSpline
210
0.0
220
0.0
230
1.0
 70
    11
 71
     3
 72
    26
 73
    22
 74
     0
 42
0.0000000001
 43
0.0000000001
 12
1.0
 22
0.0
 32
0.0
 13
1.0
 23
0.0
 33
0.0
 40
0.0
 40
0.0
 40
0.0
 40
0.0
 40
1.0
 40
1.0
 40
1.0
 40
2.0
 40
2.0
 40
2.0
 40
3.0
 40
3.0
 40
3.0
 40
4.0
 40
4.0
 40
4.0
 40
5.0
 40
5.0
 40
5.0
 40
6.0
 40
6.0
 40
6.0
 40
7.0
 40
7.0
 40
7.0
 40
7.0
 10
228.5804162584825
 20
-308.4040930426956
 30
0.0
 10
229.4908197270696
 20
-309.219399963668
 30
0.0
 10
230.3300593025836
 20
-310.1405736103897
 30
0.0
 10
231.0737388559816
 20
-311.1714508658219
 30
0.0
 10
236.6567327661089
 20
-318.9105118805639
 30
0.0
 10
234.9026821565703
 20
-329.7485597832685
 30
0.0
 10
227.1636211418283
 20
-335.3315536933958
 30
0.0
 10
224.6917113867725
 20
-337.1148006638721
 30
0.0
 10
221.9033768596233
 20
-338.1460639824854
 30
0.0
 10
219.071365529041
 20
-338.4762686208146
 30
0.0
 10
219.663692823519
 20
-339.677280724575
 30
0.0
 10
220.0340398476588
 20
-340.9466864564617
 30
0.0
 10
220.1966169563968
 20
-342.2305993493746
 30
0.0
 10
220.1966169563968
 20
-342.2305993493746
 30
0.0
 10
250.6270114853329
 20
-320.2779739579765
 30
0.0
 10
250.6270114853329
 20
-320.2779739579765
 30
0.0
 10
250.6270114853329
 20
-320.2779739579765
 30
0.0
 10
229.815012174665
 20
-305.0105433213191
 30
0.0
 10
229.815012174665
 20
-305.0105433213191
 30
0.0
 10
229.477122930991
 20
-306.1642545143308
 30
0.0
 10
229.0653645612144
 20
-307.2981088407579
 30
0.0
 10
228.5804162584825
 20
-308.4040930426956
 30
0.0
  0
SPLINE
  5
BE
330
B1
100
AcDbEntity
  8
Cut
 62
   179
420
  1842203
370
    35
100
AcDbSpline
210
0.0
220
0.0
230
1.0
 70
    11
 71
     3
 72
    23
 73
    19
 74
     0
 42
0.0000000001
 43
0.0000000001
 12
1.0
 22
0.0
 32
0.0
 13
1.0
 23
0.0
 33
0.0
 40
0.0
 40
0.0
 40
0.0
 40
0.0
 40
1.0
 40
1.0
 40
1.0
 40
2.0
 40
2.0
 40
2.0
 40
3.0
 40
3.0
 40
3.0
 40
4.0
 40
4.0
 40
4.0
 40
5.0
 40
5.0
 40
5.0
 40
6.0
 40
6.0
 40
6.0
 40
6.0
 10
159.5756348198548
 20
-284.8627233412411
 30
0.0
 10
159.4670111219754
 20
-284.7252770379941
 30
0.0
 10
159.3596757430248
 20
-284.5862794107148
 30
0.0
 10
159.2561949501399
 20
-284.4428359137501
 30
0.0
 10
157.5889081506634
 20
-282.1316683792817
 30
0.0
 10
156.8727672882623
 20
-279.4195425420174
 30
0.0
 10
157.0287275527102
 20
-276.7747746568932
 30
0.0
 10
156.18013001759
 20
-277.0852830965028
 30
0.0
 10
155.3190157992763
 20
-277.3415653492575
 30
0.0
 10
154.4506796154781
 20
-277.5510164916369
 30
0.0
 10
154.4506796154781
 20
-277.5510164916369
 30
0.0
 10
157.414832205639
 20
-286.740724100952
 30
0.0
 10
157.414832205639
 20
-286.740724100952
 30
0.0
 10
157.8962248957694
 20
-286.1694318885844
 30
0.0
 10
158.4534232677658
 20
-285.6469333872416
 30
0.0
 10
159.0861527835795
 20
-285.1904794289621
 30
0.0
 10
159.2466574930897
 20
-285.0746905995385
 30
0.0
 10
159.4104261212185
 20
-284.9668189559463
 30
0.0
 10
159.5756348198548
 20
-284.8627233412411
 30
0.0
  0
SPLINE
  5
BF
330
B1
100
AcDbEntity
  8
Cut
 62
   179
420
  1842203
370
    35
100
AcDbSpline
210
0.0
220
0.0
230
1.0
 70
    11
 71
     3
 72
    23
 73
    19
 74
     0
 42
0.0000000001
 43
0.0000000001
 12
1.0
 22
0.0
 32
0.0
 13
1.0
 23
0.0
 33
0.0
 40
0.0
 40
0.0
 40
0.0
 40
0.0
 40
1.0
 40
1.0
 40
1.0
 40
2.0
 40
2.0
 40
2.0
 40
3.0
 40
3.0
 40
3.0
 40
4.0
 40
4.0
 40
4.0
 40
5.0
 40
5.0
 40
5.0
 40
6.0
 40
6.0
 40
6.0
 40
6.0
 10
180.5125788899313
 20
-280.2626866180998
 30
0.0
 10
182.1669071216021
 20
-278.0582175110356
 30
0.0
 10
184.1762932015204
 20
-276.0637106593982
 30
0.0
 10
186.5263597727891
 20
-274.3683619173751
 30
0.0
 10
186.7842440248966
 20
-274.1823230418198
 30
0.0
 10
187.0449941020906
 20
-274.0032045646359
 30
0.0
 10
187.3070241306721
 20
-273.8271952053755
 30
0.0
 10
187.3070241306721
 20
-273.8271952053755
 30
0.0
 10
171.3518088617745
 20
-262.1226297353336
 30
0.0
 10
171.3518088617745
 20
-262.1226297353336
 30
0.0
 10
170.9475514376361
 20
-263.3091526045716
 30
0.0
 10
170.4522492942905
 20
-264.4678060098504
 30
0.0
 10
169.8616395726331
 20
-265.584171052082
 30
0.0
 10
173.232898666676
 20
-265.8516244132115
 30
0.0
 10
176.4709941113748
 20
-267.5370540073718
 30
0.0
 10
178.5999417492428
 20
-270.4881687554586
 30
0.0
 10
180.7149726435566
 20
-273.4199923258668
 30
0.0
 10
181.298810236461
 20
-276.9964821830832
 30
0.0
 10
180.5125788899313
 20
-280.2626866180998
 30
0.0
  0
SPLINE
  5
C0
330
B1
100
AcDbEntity
  8
Cut
 62
   179
420
  1842203
370
    35
100
AcDbSpline
210
0.0
220
0.0
230
1.0
 70
    11
 71
     3
 72
    23
 73
    19
 74
     0
 42
0.0000000001
 43
0.0000000001
 12
1.0
 22
0.0
 32
0.0
 13
1.0
 23
0.0
 33
0.0
 40
0.0
 40
0.0
 40
0.0
 40
0.0
 40
1.0
 40
1.0
 40
1.0
 40
2.0
 40
2.0
 40
2.0
 40
3.0
 40
3.0
 40
3.0
 40
4.0
 40
4.0
 40
4.0
 40
5.0
 40
5.0
 40
5.0
 40
6.0
 40
6.0
 40
6.0
 40
6.0
 10
163.5457506065639
 20
-281.3483309006295
 30
0.0
 10
164.3309995300769
 20
-282.4368309829625
 30
0.0
 10
165.3878788605384
 20
-283.2151822176592
 30
0.0
 10
166.5573360091848
 20
-283.6605801580865
 30
0.0
 10
166.9242876072303
 20
-283.7422516993071
 30
0.0
 10
167.2863880289467
 20
-283.8461207719203
 30
0.0
 10
167.641818836349
 20
-283.9716133686404
 30
0.0
 10
169.3847156362153
 20
-284.3155958068624
 30
0.0
 10
171.2600023467574
 20
-283.9666424926543
 30
0.0
 10
172.8108969157159
 20
-282.8478200777324
 30
0.0
 10
175.7786242443079
 20
-280.7068880485247
 30
0.0
 10
176.4513181220271
 20
-276.5504010971725
 30
0.0
 10
174.31038609282
 20
-273.5826737685804
 30
0.0
 10
172.1694540636117
 20
-270.6149464399871
 30
0.0
 10
168.0129671122601
 20
-269.9422525622692
 30
0.0
 10
165.0452397836655
 20
-272.0831845914769
 30
0.0
 10
162.0775124550734
 20
-274.224116620684
 30
0.0
 10
161.4048185773556
 20
-278.3806035720374
 30
0.0
 10
163.5457506065639
 20
-281.3483309006295
 30
0.0
  0
SPLINE
  5
C1
330
B1
100
AcDbEntity
  8
Cut
 62
   179
420
  1842203
370
    35
100
AcDbSpline
210
0.0
220
0.0
230
1.0
 70
    11
 71
     3
 72
    17
 73
    13
 74
     0
 42
0.0000000001
 43
0.0000000001
 12
1.0
 22
0.0
 32
0.0
 13
1.0
 23
0.0
 33
0.0
 40
0.0
 40
0.0
 40
0.0
 40
0.0
 40
1.0
 40
1.0
 40
1.0
 40
2.0
 40
2.0
 40
2.0
 40
3.0
 40
3.0
 40
3.0
 40
4.0
 40
4.0
 40
4.0
 40
4.0
 10
142.6931769360577
 20
-241.0990403328324
 30
0.0
 10
142.6931769360577
 20
-241.0990403328324
 30
0.0
 10
152.8213617477197
 20
-272.4996015964962
 30
0.0
 10
152.8213617477197
 20
-272.4996015964962
 30
0.0
 10
155.2224649976206
 20
-271.9744304622159
 30
0.0
 10
157.5565950687788
 20
-270.9635813554415
 30
0.0
 10
159.6735841006861
 20
-269.436375813265
 30
0.0
 10
163.3915297590906
 20
-266.7542328595516
 30
0.0
 10
165.8136517971569
 20
-262.9373777108568
 30
0.0
 10
166.8186025734041
 20
-258.7971713620813
 30
0.0
 10
166.8186025734041
 20
-258.7971713620813
 30
0.0
 10
142.6931769360577
 20
-241.0990403328324
 30
0.0
 10
142.6931769360577
 20
-241.0990403328324
 30
0.0
  0
ENDBLK
  5
B4
330
B1
100
AcDbEntity
  8
0
100
AcDbBlockEnd
  0
BLOCK
  5
DD
330
DB
100
AcDbEntity
  8
0
100
AcDbBlockBegin
  2
block 8
 70
     0
 10
0.0
 20
0.0
 30
0.0
  3
block 8
  1

  0
SPLINE
  5
DF
330
DB
100
AcDbEntity
  8
Cut
 62
   179
420
  1842203
370
    35
100
AcDbSpline
210
0.0
220
0.0
230
1.0
 70
    11
 71
     3
 72
    14
 73
    10
 74
     0
 42
0.0000000001
 43
0.0000000001
 12
1.0
 22
0.0
 32
0.0
 13
1.0
 23
0.0
 33
0.0
 40
0.0
 40
0.0
 40
0.0
 40
0.0
 40
1.0
 40
1.0
 40
1.0
 40
2.0
 40
2.0
 40
2.0
 40
3.0
 40
3.0
 40
3.0
 40
3.0
 10
237.9265055750207
 20
-213.1105313327457
 30
0.0
 10
240.1155875520251
 20
-210.5978395827053
 30
0.0
 10
242.9130793645157
 20
-208.8536918121278
 30
0.0
 10
245.9404434302881
 20
-207.937741034529
 30
0.0
 10
245.9404434302881
 20
-207.937741034529
 30
0.0
 10
231.863451741747
 20
-203.4870630082604
 30
0.0
 10
231.863451741747
 20
-203.4870630082604
 30
0.0
 10
234.6981519452578
 20
-206.2146355888856
 30
0.0
 10
236.73994516857
 20
-209.5331361167921
 30
0.0
 10
237.9265055750207
 20
-213.1105313327457
 30
0.0
  0
SPLINE
  5
E0
330
DB
100
AcDbEntity
  8
Cut
 62
   179
420
  1842203
370
    35
100
AcDbSpline
210
0.0
220
0.0
230
1.0
 70
    11
 71
     3
 72
    14
 73
    10
 74
     0
 42
0.0000000001
 43
0.0000000001
 12
1.0
 22
0.0
 32
0.0
 13
1.0
 23
0.0
 33
0.0
 40
0.0
 40
0.0
 40
0.0
 40
0.0
 40
1.0
 40
1.0
 40
1.0
 40
2.0
 40
2.0
 40
2.0
 40
3.0
 40
3.0
 40
3.0
 40
3.0
 10
211.7172579506293
 20
-197.1174663582515
 30
0.0
 10
211.7172579506293
 20
-197.1174663582515
 30
0.0
 10
205.2584603641797
 20
-195.0754244288216
 30
0.0
 10
205.2584603641797
 20
-195.0754244288216
 30
0.0
 10
205.644092461579
 20
-196.284138399497
 30
0.0
 10
205.8412992020035
 20
-197.5476942599043
 30
0.0
 10
205.8321768906216
 20
-198.8176506797177
 30
0.0
 10
207.7173060206649
 20
-197.9987808763918
 30
0.0
 10
209.6971634576607
 20
-197.4299461233908
 30
0.0
 10
211.7172579506293
 20
-197.1174663582515
 30
0.0
  0
SPLINE
  5
E1
330
DB
100
AcDbEntity
  8
Cut
 62
   179
420
  1842203
370
    35
100
AcDbSpline
210
0.0
220
0.0
230
1.0
 70
    11
 71
     3
 72
    17
 73
    13
 74
     0
 42
0.0000000001
 43
0.0000000001
 12
1.0
 22
0.0
 32
0.0
 13
1.0
 23
0.0
 33
0.0
 40
0.0
 40
0.0
 40
0.0
 40
0.0
 40
1.0
 40
1.0
 40
1.0
 40
2.0
 40
2.0
 40
2.0
 40
3.0
 40
3.0
 40
3.0
 40
4.0
 40
4.0
 40
4.0
 40
4.0
 10
190.0622990004509
 20
-204.1197090108028
 30
0.0
 10
193.0423714415809
 20
-206.2434236093733
 30
0.0
 10
197.1948941970082
 20
-205.5466771737651
 30
0.0
 10
199.31860879558
 20
-202.5666047326345
 30
0.0
 10
201.44232339415
 20
-199.5865322915051
 30
0.0
 10
200.7454258797478
 20
-195.4342215352541
 30
0.0
 10
197.7653534386185
 20
-193.3105069366835
 30
0.0
 10
194.7852809974885
 20
-191.1867923381135
 30
0.0
 10
190.6329093208539
 20
-191.8833267745443
 30
0.0
 10
188.5091947222826
 20
-194.8633992156743
 30
0.0
 10
186.3854801237114
 20
-197.8434716568049
 30
0.0
 10
187.082226559321
 20
-201.9959944122322
 30
0.0
 10
190.0622990004509
 20
-204.1197090108028
 30
0.0
  0
SPLINE
  5
E2
330
DB
100
AcDbEntity
  8
Cut
 62
   179
420
  1842203
370
    35
100
AcDbSpline
210
0.0
220
0.0
230
1.0
 70
    11
 71
     3
 72
    17
 73
    13
 74
     0
 42
0.0000000001
 43
0.0000000001
 12
1.0
 22
0.0
 32
0.0
 13
1.0
 23
0.0
 33
0.0
 40
0.0
 40
0.0
 40
0.0
 40
0.0
 40
1.0
 40
1.0
 40
1.0
 40
2.0
 40
2.0
 40
2.0
 40
3.0
 40
3.0
 40
3.0
 40
4.0
 40
4.0
 40
4.0
 40
4.0
 10
249.8020951853072
 20
-236.4421747731218
 30
0.0
 10
253.9387066554697
 20
-236.8378882870461
 30
0.0
 10
258.1721706389506
 20
-235.0821582819853
 30
0.0
 10
260.7522187329307
 20
-231.4617423245701
 30
0.0
 10
262.3136558322322
 20
-229.2706778230986
 30
0.0
 10
263.0329648137078
 20
-226.7296971379789
 30
0.0
 10
262.9754792816977
 20
-224.2267204485137
 30
0.0
 10
258.8509079892607
 20
-224.7664123288243
 30
0.0
 10
254.9516104711563
 20
-226.9464863870756
 30
0.0
 10
252.3528286067962
 20
-230.5931902425272
 30
0.0
 10
251.0640887295502
 20
-232.4015962282252
 30
0.0
 10
250.2237904721051
 20
-234.3952403209964
 30
0.0
 10
249.8020951853072
 20
-236.4421747731218
 30
0.0
  0
SPLINE
  5
E3
330
DB
100
AcDbEntity
  8
Cut
 62
   179
420
  1842203
370
    35
100
AcDbSpline
210
0.0
220
0.0
230
1.0
 70
    11
 71
     3
 72
    26
 73
    22
 74
     0
 42
0.0000000001
 43
0.0000000001
 12
1.0
 22
0.0
 32
0.0
 13
1.0
 23
0.0
 33
0.0
 40
0.0
 40
0.0
 40
0.0
 40
0.0
 40
1.0
 40
1.0
 40
1.0
 40
2.0
 40
2.0
 40
2.0
 40
3.0
 40
3.0
 40
3.0
 40
4.0
 40
4.0
 40
4.0
 40
5.0
 40
5.0
 40
5.0
 40
6.0
 40
6.0
 40
6.0
 40
7.0
 40
7.0
 40
7.0
 40
7.0
 10
268.2613207438907
 20
-224.43939359693
 30
0.0
 10
268.2758291943392
 20
-227.9376240650051
 30
0.0
 10
267.2402893294066
 20
-231.4713651173767
 30
0.0
 10
265.0596180257302
 20
-234.5313612485042
 30
0.0
 10
261.4157108384509
 20
-239.6446224155904
 30
0.0
 10
255.4817781750964
 20
-242.1789991171258
 30
0.0
 10
249.6352133245946
 20
-241.737633083304
 30
0.0
 10
250.2056891542888
 20
-245.8101200675581
 30
0.0
 10
252.3763197832388
 20
-249.6507025154736
 30
0.0
 10
255.9815512995509
 20
-252.2199295908781
 30
0.0
 10
257.9254512597059
 20
-253.6052277019451
 30
0.0
 10
260.0829500164335
 20
-254.4757661321325
 30
0.0
 10
262.2910601398482
 20
-254.8611204647463
 30
0.0
 10
262.2910601398482
 20
-254.8611204647463
 30
0.0
 10
278.5354863558096
 20
-232.0663593792686
 30
0.0
 10
278.5354863558096
 20
-232.0663593792686
 30
0.0
 10
277.4505148672465
 20
-230.1049766596298
 30
0.0
 10
275.9234679153001
 20
-228.34976566084
 30
0.0
 10
273.9795679551459
 20
-226.964467549773
 30
0.0
 10
272.2096133203065
 20
-225.703129588676
 30
0.0
 10
270.26240624899
 20
-224.8696917374729
 30
0.0
 10
268.2613207438907
 20
-224.43939359693
 30
0.0
  0
SPLINE
  5
E4
330
DB
100
AcDbEntity
  8
Cut
 62
   179
420
  1842203
370
    35
100
AcDbSpline
210
0.0
220
0.0
230
1.0
 70
    11
 71
     3
 72
    17
 73
    13
 74
     0
 42
0.0000000001
 43
0.0000000001
 12
1.0
 22
0.0
 32
0.0
 13
1.0
 23
0.0
 33
0.0
 40
0.0
 40
0.0
 40
0.0
 40
0.0
 40
1.0
 40
1.0
 40
1.0
 40
2.0
 40
2.0
 40
2.0
 40
3.0
 40
3.0
 40
3.0
 40
4.0
 40
4.0
 40
4.0
 40
4.0
 10
204.6041302506206
 20
-235.7106899765297
 30
0.0
 10
212.9189499997527
 20
-241.6361513317645
 30
0.0
 10
224.5044049794641
 20
-239.6922427881046
 30
0.0
 10
230.4298663346989
 20
-231.3774230389718
 30
0.0
 10
236.3553276899344
 20
-223.0626032898391
 30
0.0
 10
234.4114191462739
 20
-211.4771483101277
 30
0.0
 10
226.0965993971418
 20
-205.5516869548922
 30
0.0
 10
217.7817796480084
 20
-199.626225599658
 30
0.0
 10
206.1963246682976
 20
-201.5701341433179
 30
0.0
 10
200.2708633130615
 20
-209.8849538924513
 30
0.0
 10
194.3454019578279
 20
-218.1997736415834
 30
0.0
 10
196.2893105014872
 20
-229.7852286212948
 30
0.0
 10
204.6041302506206
 20
-235.7106899765297
 30
0.0
  0
SPLINE
  5
E5
330
DB
100
AcDbEntity
  8
Cut
 62
   179
420
  1842203
370
    35
100
AcDbSpline
210
0.0
220
0.0
230
1.0
 70
    11
 71
     3
 72
    23
 73
    19
 74
     0
 42
0.0000000001
 43
0.0000000001
 12
1.0
 22
0.0
 32
0.0
 13
1.0
 23
0.0
 33
0.0
 40
0.0
 40
0.0
 40
0.0
 40
0.0
 40
1.0
 40
1.0
 40
1.0
 40
2.0
 40
2.0
 40
2.0
 40
3.0
 40
3.0
 40
3.0
 40
4.0
 40
4.0
 40
4.0
 40
5.0
 40
5.0
 40
5.0
 40
6.0
 40
6.0
 40
6.0
 40
6.0
 10
257.9400728717663
 20
-214.7017001007941
 30
0.0
 10
252.5440578014048
 20
-210.856291572842
 30
0.0
 10
245.025439175943
 20
-212.1178308915962
 30
0.0
 10
241.1800306479916
 20
-217.5138459619577
 30
0.0
 10
237.3346221200395
 20
-222.9098610323205
 30
0.0
 10
238.5961614387937
 20
-230.4284796577823
 30
0.0
 10
243.9921765091552
 20
-234.2738881857338
 30
0.0
 10
244.2421102897314
 20
-234.4520006407066
 30
0.0
 10
244.4979556156845
 20
-234.6154257714907
 30
0.0
 10
244.756420289022
 20
-234.7717270071786
 30
0.0
 10
245.3573161543403
 20
-232.2362659979127
 30
0.0
 10
246.4424077768174
 20
-229.7729885937292
 30
0.0
 10
248.0454293139966
 20
-227.5235713185924
 30
0.0
 10
251.4038164666331
 20
-222.8109620974892
 30
0.0
 10
256.3814390070972
 20
-219.923616330056
 30
0.0
 10
261.6884179514515
 20
-219.0718483638479
 30
0.0
 10
260.8395091219176
 20
-217.3841021259352
 30
0.0
 10
259.582576250954
 20
-215.8722113797945
 30
0.0
 10
257.9400728717663
 20
-214.7017001007941
 30
0.0
  0
SPLINE
  5
E6
330
DB
100
AcDbEntity
  8
Cut
 62
   179
420
  1842203
370
    35
100
AcDbSpline
210
0.0
220
0.0
230
1.0
 70
    11
 71
     3
 72
    38
 73
    34
 74
     0
 42
0.0000000001
 43
0.0000000001
 12
1.0
 22
0.0
 32
0.0
 13
1.0
 23
0.0
 33
0.0
 40
0.0
 40
0.0
 40
0.0
 40
0.0
 40
1.0
 40
1.0
 40
1.0
 40
2.0
 40
2.0
 40
2.0
 40
3.0
 40
3.0
 40
3.0
 40
4.0
 40
4.0
 40
4.0
 40
5.0
 40
5.0
 40
5.0
 40
6.0
 40
6.0
 40
6.0
 40
7.0
 40
7.0
 40
7.0
 40
8.0
 40
8.0
 40
8.0
 40
9.0
 40
9.0
 40
9.0
 40
10.0
 40
10.0
 40
10.0
 40
11.0
 40
11.0
 40
11.0
 40
11.0
 10
252.9119323756156
 20
-256.527328883677
 30
0.0
 10
247.4753989624131
 20
-252.6530454213407
 30
0.0
 10
244.4695720846812
 20
-246.6240257911788
 30
0.0
 10
244.2153589273436
 20
-240.4199989672158
 30
0.0
 10
243.0762094144102
 20
-239.9371310773666
 30
0.0
 10
241.9709597687607
 20
-239.3284193239302
 30
0.0
 10
240.9225575852205
 20
-238.5812874785333
 30
0.0
 10
238.7304595877569
 20
-237.0191138701141
 30
0.0
 10
237.0126490068347
 20
-235.0358142719624
 30
0.0
 10
235.7995437170412
 20
-232.8192108716432
 30
0.0
 10
235.47003462263
 20
-233.3711623943455
 30
0.0
 10
235.1167755564735
 20
-233.9145000284883
 30
0.0
 10
234.7372656274985
 20
-234.4470419629078
 30
0.0
 10
233.4374592286367
 20
-236.2709768883716
 30
0.0
 10
231.9254821725186
 20
-237.8560430327656
 30
0.0
 10
230.2590478684744
 20
-239.1935016525234
 30
0.0
 10
230.3123525586167
 20
-239.2298903125443
 30
0.0
 10
230.3665286899485
 20
-239.2641029373248
 30
0.0
 10
230.4193297351489
 20
-239.3017309993012
 30
0.0
 10
233.6175095803006
 20
-241.5808773489881
 30
0.0
 10
234.9378241105656
 20
-245.5253450636114
 30
0.0
 10
234.0483363197393
 20
-249.1248487663605
 30
0.0
 10
237.4682511068088
 20
-249.1576610589452
 30
0.0
 10
240.9110060547278
 20
-250.195390209006
 30
0.0
 10
243.9013339560792
 20
-252.3264132442069
 30
0.0
 10
250.1444447407932
 20
-256.7754948608142
 30
0.0
 10
252.5403134821766
 20
-264.6375694241121
 30
0.0
 10
250.3714910026354
 20
-271.5870870893858
 30
0.0
 10
250.3714910026354
 20
-271.5870870893858
 30
0.0
 10
258.9853239467059
 20
-259.4998479724167
 30
0.0
 10
258.9853239467059
 20
-259.4998479724167
 30
0.0
 10
256.8655092012094
 20
-258.8634266095692
 30
0.0
 10
254.8120942554181
 20
-257.8814575511847
 30
0.0
 10
252.9119323756156
 20
-256.527328883677
 30
0.0
  0
SPLINE
  5
E7
330
DB
100
AcDbEntity
  8
Cut
 62
   179
420
  1842203
370
    35
100
AcDbSpline
210
0.0
220
0.0
230
1.0
 70
    11
 71
     3
 72
    23
 73
    19
 74
     0
 42
0.0000000001
 43
0.0000000001
 12
1.0
 22
0.0
 32
0.0
 13
1.0
 23
0.0
 33
0.0
 40
0.0
 40
0.0
 40
0.0
 40
0.0
 40
1.0
 40
1.0
 40
1.0
 40
2.0
 40
2.0
 40
2.0
 40
3.0
 40
3.0
 40
3.0
 40
4.0
 40
4.0
 40
4.0
 40
5.0
 40
5.0
 40
5.0
 40
6.0
 40
6.0
 40
6.0
 40
6.0
 10
193.7444742348576
 20
-210.6333178427808
 30
0.0
 10
191.4002740476402
 20
-210.6033846090516
 30
0.0
 10
189.0422483768123
 20
-209.8877097507459
 30
0.0
 10
186.9926800765156
 20
-208.4271083036023
 30
0.0
 10
181.6373688482744
 20
-204.6107069039804
 30
0.0
 10
180.3853940298605
 20
-197.1490915199801
 30
0.0
 10
184.2017954294831
 20
-191.7937802917389
 30
0.0
 10
184.920836061736
 20
-190.7847967053053
 30
0.0
 10
185.7695046253081
 20
-189.9218145788944
 30
0.0
 10
186.7088885712175
 20
-189.2106280650669
 30
0.0
 10
186.7088885712175
 20
-189.2106280650669
 30
0.0
 10
158.9404139120406
 20
-180.4311212078593
 30
0.0
 10
158.9404139120406
 20
-180.4311212078593
 30
0.0
 10
158.9404139120406
 20
-180.4311212078593
 30
0.0
 10
191.9417971873497
 20
-224.8755683156006
 30
0.0
 10
191.9417971873497
 20
-224.8755683156006
 30
0.0
 10
191.0855373236458
 20
-220.1474560112949
 30
0.0
 10
191.6446575304678
 20
-215.1662853132057
 30
0.0
 10
193.7444742348576
 20
-210.6333178427808
 30
0.0
  0
SPLINE
  5
E8
330
DB
100
AcDbEntity
  8
Cut
 62
   179
420
  1842203
370
    35
100
AcDbSpline
210
0.0
220
0.0
230
1.0
 70
    11
 71
     3
 72
    20
 73
    16
 74
     0
 42
0.0000000001
 43
0.0000000001
 12
1.0
 22
0.0
 32
0.0
 13
1.0
 23
0.0
 33
0.0
 40
0.0
 40
0.0
 40
0.0
 40
0.0
 40
1.0
 40
1.0
 40
1.0
 40
2.0
 40
2.0
 40
2.0
 40
3.0
 40
3.0
 40
3.0
 40
4.0
 40
4.0
 40
4.0
 40
5.0
 40
5.0
 40
5.0
 40
5.0
 10
286.5749554971402
 20
-220.7850881361747
 30
0.0
 10
286.5749554971402
 20
-220.7850881361747
 30
0.0
 10
264.6048444544992
 20
-213.8388570117183
 30
0.0
 10
264.6048444544992
 20
-213.8388570117183
 30
0.0
 10
265.8132439270746
 20
-215.3900033130118
 30
0.0
 10
266.7331284302112
 20
-217.1174609866518
 30
0.0
 10
267.3473762040938
 20
-218.9388622118232
 30
0.0
 10
270.7376624664736
 20
-219.3216097779654
 30
0.0
 10
274.0792638985849
 20
-220.5405865556366
 30
0.0
 10
277.0491868790818
 20
-222.6570682569735
 30
0.0
 10
278.9493487588831
 20
-224.0111969244812
 30
0.0
 10
280.547752148707
 20
-225.6316545063468
 30
0.0
 10
281.8412036641027
 20
-227.4276583714969
 30
0.0
 10
281.8412036641027
 20
-227.4276583714969
 30
0.0
 10
286.5749554971402
 20
-220.7850881361747
 30
0.0
 10
286.5749554971402
 20
-220.7850881361747
 30
0.0
  0
SPLINE
  5
E9
330
DB
100
AcDbEntity
  8
Cut
 62
   179
420
  1842203
370
    35
100
AcDbSpline
210
0.0
220
0.0
230
1.0
 70
    11
 71
     3
 72
    17
 73
    13
 74
     0
 42
0.0000000001
 43
0.0000000001
 12
1.0
 22
0.0
 32
0.0
 13
1.0
 23
0.0
 33
0.0
 40
0.0
 40
0.0
 40
0.0
 40
0.0
 40
1.0
 40
1.0
 40
1.0
 40
2.0
 40
2.0
 40
2.0
 40
3.0
 40
3.0
 40
3.0
 40
4.0
 40
4.0
 40
4.0
 40
4.0
 10
222.6856063019249
 20
-250.1539689064967
 30
0.0
 10
224.4899313034508
 20
-251.4398005169704
 30
0.0
 10
227.0042462532936
 20
-251.0179268554696
 30
0.0
 10
228.2900778637666
 20
-249.2136018539431
 30
0.0
 10
229.5759094742409
 20
-247.4092768524165
 30
0.0
 10
229.1540358127388
 20
-244.8949619025744
 30
0.0
 10
227.3497108112129
 20
-243.6091302921001
 30
0.0
 10
225.5453858096864
 20
-242.3232986816265
 30
0.0
 10
223.0310708598449
 20
-242.7451723431279
 30
0.0
 10
221.7452392493712
 20
-244.5494973446538
 30
0.0
 10
220.4594076388969
 20
-246.3538223461803
 30
0.0
 10
220.8812813003984
 20
-248.8681372960218
 30
0.0
 10
222.6856063019249
 20
-250.1539689064967
 30
0.0
  0
SPLINE
  5
EA
330
DB
100
AcDbEntity
  8
Cut
 62
   179
420
  1842203
370
    35
100
AcDbSpline
210
0.0
220
0.0
230
1.0
 70
    11
 71
     3
 72
    14
 73
    10
 74
     0
 42
0.0000000001
 43
0.0000000001
 12
1.0
 22
0.0
 32
0.0
 13
1.0
 23
0.0
 33
0.0
 40
0.0
 40
0.0
 40
0.0
 40
0.0
 40
1.0
 40
1.0
 40
1.0
 40
2.0
 40
2.0
 40
2.0
 40
3.0
 40
3.0
 40
3.0
 40
3.0
 10
235.567867637686
 20
-283.628770763528
 30
0.0
 10
235.567867637686
 20
-283.628770763528
 30
0.0
 10
238.7428996214767
 20
-287.9047432977479
 30
0.0
 10
238.7428996214767
 20
-287.9047432977479
 30
0.0
 10
238.7428996214767
 20
-287.9047432977479
 30
0.0
 10
244.1318612965629
 20
-280.3427591285758
 30
0.0
 10
244.1318612965629
 20
-280.3427591285758
 30
0.0
 10
241.599809282933
 20
-282.2083008249915
 30
0.0
 10
238.6299590545051
 20
-283.3225527074071
 30
0.0
 10
235.567867637686
 20
-283.628770763528
 30
0.0
  0
SPLINE
  5
EB
330
DB
100
AcDbEntity
  8
Cut
 62
   179
420
  1842203
370
    35
100
AcDbSpline
210
0.0
220
0.0
230
1.0
 70
    11
 71
     3
 72
    20
 73
    16
 74
     0
 42
0.0000000001
 43
0.0000000001
 12
1.0
 22
0.0
 32
0.0
 13
1.0
 23
0.0
 33
0.0
 40
0.0
 40
0.0
 40
0.0
 40
0.0
 40
1.0
 40
1.0
 40
1.0
 40
2.0
 40
2.0
 40
2.0
 40
3.0
 40
3.0
 40
3.0
 40
4.0
 40
4.0
 40
4.0
 40
5.0
 40
5.0
 40
5.0
 40
5.0
 10
243.6438608933081
 20
-273.3938547607819
 30
0.0
 10
247.4892694212596
 20
-267.9978396904203
 30
0.0
 10
246.2277301025067
 20
-260.4792210649572
 30
0.0
 10
240.8317150321445
 20
-256.6338125370058
 30
0.0
 10
235.4356999617817
 20
-252.788404009055
 30
0.0
 10
227.9170813363199
 20
-254.0499433278085
 30
0.0
 10
224.0716728083684
 20
-259.4459583981701
 30
0.0
 10
222.8117889806581
 20
-261.2138725409246
 30
0.0
 10
222.1035965125378
 20
-263.209836902503
 30
0.0
 10
221.905920369153
 20
-265.229612532615
 30
0.0
 10
221.905920369153
 20
-265.229612532615
 30
0.0
 10
231.5423418657277
 20
-278.2074307878116
 30
0.0
 10
231.5423418657277
 20
-278.2074307878116
 30
0.0
 10
236.0278123137614
 20
-279.0814730348167
 30
0.0
 10
240.8235597481519
 20
-277.3514024105583
 30
0.0
 10
243.6438608933081
 20
-273.3938547607819
 30
0.0
  0
SPLINE
  5
EC
330
DB
100
AcDbEntity
  8
Cut
 62
   179
420
  1842203
370
    35
100
AcDbSpline
210
0.0
220
0.0
230
1.0
 70
    11
 71
     3
 72
    23
 73
    19
 74
     0
 42
0.0000000001
 43
0.0000000001
 12
1.0
 22
0.0
 32
0.0
 13
1.0
 23
0.0
 33
0.0
 40
0.0
 40
0.0
 40
0.0
 40
0.0
 40
1.0
 40
1.0
 40
1.0
 40
2.0
 40
2.0
 40
2.0
 40
3.0
 40
3.0
 40
3.0
 40
4.0
 40
4.0
 40
4.0
 40
5.0
 40
5.0
 40
5.0
 40
6.0
 40
6.0
 40
6.0
 40
6.0
 10
219.7642735155688
 20
-256.3763394742354
 30
0.0
 10
220.070982350983
 20
-255.9459546435783
 30
0.0
 10
220.3964202443474
 20
-255.536948414058
 30
0.0
 10
220.7341273080766
 20
-255.1433586495906
 30
0.0
 10
220.3513016666254
 20
-254.9445444865659
 30
0.0
 10
219.9771677270717
 20
-254.7187592510955
 30
0.0
 10
219.6159873779889
 20
-254.4613681992963
 30
0.0
 10
216.3521937873352
 20
-252.1354629630577
 30
0.0
 10
215.0413662614863
 20
-248.0747654241517
 30
0.0
 10
216.041921814177
 20
-244.4167177313418
 30
0.0
 10
212.1323960069857
 20
-244.5350237641035
 30
0.0
 10
208.1719819424822
 20
-243.6926771984104
 30
0.0
 10
204.5346226965164
 20
-241.8349022240039
 30
0.0
 10
204.5346226965164
 20
-241.8349022240039
 30
0.0
 10
217.8724921280725
 20
-259.7976062483692
 30
0.0
 10
217.8724921280725
 20
-259.7976062483692
 30
0.0
 10
218.3632996104415
 20
-258.6130285315783
 30
0.0
 10
218.989125996424
 20
-257.4640542552931
 30
0.0
 10
219.7642735155688
 20
-256.3763394742354
 30
0.0
  0
ENDBLK
  5
DE
330
DB
100
AcDbEntity
  8
0
100
AcDbBlockEnd
  0
BLOCK
  5
EF
330
ED
100
AcDbEntity
  8
0
100
AcDbBlockBegin
  2
block 9
 70
     0
 10
0.0
 20
0.0
 30
0.0
  3
block 9
  1

  0
SPLINE
  5
F1
330
ED
100
AcDbEntity
  8
Cut
 62
   179
420
  1842203
370
    35
100
AcDbSpline
210
0.0
220
0.0
230
1.0
 70
    11
 71
     3
 72
    23
 73
    19
 74
     0
 42
0.0000000001
 43
0.0000000001
 12
1.0
 22
0.0
 32
0.0
 13
1.0
 23
0.0
 33
0.0
 40
0.0
 40
0.0
 40
0.0
 40
0.0
 40
1.0
 40
1.0
 40
1.0
 40
2.0
 40
2.0
 40
2.0
 40
3.0
 40
3.0
 40
3.0
 40
4.0
 40
4.0
 40
4.0
 40
5.0
 40
5.0
 40
5.0
 40
6.0
 40
6.0
 40
6.0
 40
6.0
 10
259.7401851337388
 20
-142.1648560677609
 30
0.0
 10
254.0459749124987
 20
-142.2029896511301
 30
0.0
 10
249.2942179443809
 20
-146.2175940255024
 30
0.0
 10
248.0976812663269
 20
-151.5509741770756
 30
0.0
 10
255.2241485152938
 20
-153.5277019173769
 30
0.0
 10
261.0238510051006
 20
-158.7462178178638
 30
0.0
 10
263.7910613628538
 20
-165.520531000025
 30
0.0
 10
264.2095006889238
 20
-165.3735712444004
 30
0.0
 10
264.6179722404791
 20
-165.2056566280772
 30
0.0
 10
265.0138291849956
 20
-165.0151452755412
 30
0.0
 10
264.1763060809748
 20
-162.6131935509043
 30
0.0
 10
263.7127485292375
 20
-160.0366270181516
 30
0.0
 10
263.6947874954305
 20
-157.3546366765366
 30
0.0
 10
263.6638186478118
 20
-152.730284253539
 30
0.0
 10
264.9616656662188
 20
-148.4017486557388
 30
0.0
 10
267.2279730504895
 20
-144.7294614104399
 30
0.0
 10
265.164257738693
 20
-143.1087375376677
 30
0.0
 10
262.5619824625998
 20
-142.1459587598798
 30
0.0
 10
259.7401851337388
 20
-142.1648560677609
 30
0.0
  0
SPLINE
  5
F2
330
ED
100
AcDbEntity
  8
Cut
 62
   179
420
  1842203
370
    35
100
AcDbSpline
210
0.0
220
0.0
230
1.0
 70
    11
 71
     3
 72
    20
 73
    16
 74
     0
 42
0.0000000001
 43
0.0000000001
 12
1.0
 22
0.0
 32
0.0
 13
1.0
 23
0.0
 33
0.0
 40
0.0
 40
0.0
 40
0.0
 40
0.0
 40
1.0
 40
1.0
 40
1.0
 40
2.0
 40
2.0
 40
2.0
 40
3.0
 40
3.0
 40
3.0
 40
4.0
 40
4.0
 40
4.0
 40
5.0
 40
5.0
 40
5.0
 40
5.0
 10
241.5827982128229
 20
-150.6901536698621
 30
0.0
 10
242.0129898280629
 20
-150.6872727175985
 30
0.0
 10
242.4404319864464
 20
-150.6965805862535
 30
0.0
 10
242.8652272454498
 20
-150.7163844467108
 30
0.0
 10
243.641005203014
 20
-146.9159092080973
 30
0.0
 10
245.6692894898001
 20
-143.5642498863999
 30
0.0
 10
248.4978152837268
 20
-141.1097940924386
 30
0.0
 10
248.4978152837268
 20
-141.1097940924386
 30
0.0
 10
226.9365914748886
 20
-148.2461195300796
 30
0.0
 10
226.9365914748886
 20
-148.2461195300796
 30
0.0
 10
227.8685173122322
 20
-150.2157149741935
 30
0.0
 10
228.4397690048482
 20
-152.3888304225877
 30
0.0
 10
228.5636886845493
 20
-154.6803326991084
 30
0.0
 10
232.2963399646021
 20
-152.1895587487227
 30
0.0
 10
236.7697315753416
 20
-150.7223863185967
 30
0.0
 10
241.5827982128229
 20
-150.6901536698621
 30
0.0
  0
SPLINE
  5
F3
330
ED
100
AcDbEntity
  8
Cut
 62
   179
420
  1842203
370
    35
100
AcDbSpline
210
0.0
220
0.0
230
1.0
 70
    11
 71
     3
 72
    32
 73
    28
 74
     0
 42
0.0000000001
 43
0.0000000001
 12
1.0
 22
0.0
 32
0.0
 13
1.0
 23
0.0
 33
0.0
 40
0.0
 40
0.0
 40
0.0
 40
0.0
 40
1.0
 40
1.0
 40
1.0
 40
2.0
 40
2.0
 40
2.0
 40
3.0
 40
3.0
 40
3.0
 40
4.0
 40
4.0
 40
4.0
 40
5.0
 40
5.0
 40
5.0
 40
6.0
 40
6.0
 40
6.0
 40
7.0
 40
7.0
 40
7.0
 40
8.0
 40
8.0
 40
8.0
 40
9.0
 40
9.0
 40
9.0
 40
9.0
 10
289.7973805122869
 20
-180.8893469906546
 30
0.0
 10
289.0931545735178
 20
-180.9570954252808
 30
0.0
 10
288.3805346757798
 20
-180.9959384071944
 30
0.0
 10
287.6597631941135
 20
-181.0007653451403
 30
0.0
 10
279.0946369084713
 20
-181.0581251798829
 30
0.0
 10
271.5421833304405
 20
-176.5610708157281
 30
0.0
 10
267.302390142527
 20
-169.7824965005391
 30
0.0
 10
266.6347474164203
 20
-170.1039514503894
 30
0.0
 10
265.943261757657
 20
-170.3831323518419
 30
0.0
 10
265.2314988088145
 20
-170.6179652306523
 30
0.0
 10
265.4307250983982
 20
-171.8292462349763
 30
0.0
 10
265.5392996123775
 20
-173.0708769806148
 30
0.0
 10
265.5477739115052
 20
-174.3362823384651
 30
0.0
 10
265.6185206241242
 20
-184.900373580925
 30
0.0
 10
258.7612610338984
 20
-193.9238918754994
 30
0.0
 10
249.2394376930643
 20
-197.0907872644811
 30
0.0
 10
249.2394376930643
 20
-197.0907872644811
 30
0.0
 10
263.1751339950677
 20
-201.4970303107323
 30
0.0
 10
263.1751339950677
 20
-201.4970303107323
 30
0.0
 10
264.5951753221332
 20
-193.4297015115003
 30
0.0
 10
271.6218016867533
 20
-187.2545515314439
 30
0.0
 10
280.0985988517432
 20
-187.1977832284067
 30
0.0
 10
283.7084435719955
 20
-187.1736084422224
 30
0.0
 10
287.0699760423468
 20
-188.2636150581495
 30
0.0
 10
289.8593513306852
 20
-190.1429978769291
 30
0.0
 10
289.8593513306852
 20
-190.1429978769291
 30
0.0
 10
289.7973805122869
 20
-180.8893469906546
 30
0.0
 10
289.7973805122869
 20
-180.8893469906546
 30
0.0
  0
SPLINE
  5
F4
330
ED
100
AcDbEntity
  8
Cut
 62
   179
420
  1842203
370
    35
100
AcDbSpline
210
0.0
220
0.0
230
1.0
 70
    11
 71
     3
 72
    26
 73
    22
 74
     0
 42
0.0000000001
 43
0.0000000001
 12
1.0
 22
0.0
 32
0.0
 13
1.0
 23
0.0
 33
0.0
 40
0.0
 40
0.0
 40
0.0
 40
0.0
 40
1.0
 40
1.0
 40
1.0
 40
2.0
 40
2.0
 40
2.0
 40
3.0
 40
3.0
 40
3.0
 40
4.0
 40
4.0
 40
4.0
 40
5.0
 40
5.0
 40
5.0
 40
6.0
 40
6.0
 40
6.0
 40
7.0
 40
7.0
 40
7.0
 40
7.0
 10
274.1086837084031
 20
-144.4264366469494
 30
0.0
 10
275.9908513477184
 20
-147.1744319442039
 30
0.0
 10
277.1023976204914
 20
-150.4913968165955
 30
0.0
 10
277.1263330264665
 20
-154.0654966339055
 30
0.0
 10
277.1598471274744
 20
-159.0699132047043
 30
0.0
 10
275.0525812466929
 20
-163.5968712490948
 30
0.0
 10
271.6665736651337
 20
-166.7822911393016
 30
0.0
 10
274.9395764852992
 20
-172.167580323739
 30
0.0
 10
280.8773739454116
 20
-175.7568098653855
 30
0.0
 10
287.6243423322184
 20
-175.7116260608767
 30
0.0
 10
288.3478796916731
 20
-175.7067806001109
 30
0.0
 10
289.060157989009
 20
-175.6558020389942
 30
0.0
 10
289.7617569889491
 20
-175.5699457494173
 30
0.0
 10
289.7617569889491
 20
-175.5699457494173
 30
0.0
 10
289.5154557821041
 20
-138.7915807071479
 30
0.0
 10
289.5154557821041
 20
-138.7915807071479
 30
0.0
 10
288.8127698195005
 20
-138.7151287801794
 30
0.0
 10
288.0998726420599
 20
-138.6736944834418
 30
0.0
 10
287.3763352826051
 20
-138.6785399442076
 30
0.0
 10
282.1576770723265
 20
-138.7134888010647
 30
0.0
 10
277.4543608902634
 20
-140.9185432434155
 30
0.0
 10
274.1086837084031
 20
-144.4264366469494
 30
0.0
  0
SPLINE
  5
F5
330
ED
100
AcDbEntity
  8
Cut
 62
   179
420
  1842203
370
    35
100
AcDbSpline
210
0.0
220
0.0
230
1.0
 70
    11
 71
     3
 72
    17
 73
    13
 74
     0
 42
0.0000000001
 43
0.0000000001
 12
1.0
 22
0.0
 32
0.0
 13
1.0
 23
0.0
 33
0.0
 40
0.0
 40
0.0
 40
0.0
 40
0.0
 40
1.0
 40
1.0
 40
1.0
 40
2.0
 40
2.0
 40
2.0
 40
3.0
 40
3.0
 40
3.0
 40
4.0
 40
4.0
 40
4.0
 40
4.0
 10
280.1340197136384
 20
-192.4869225126696
 30
0.0
 10
274.0066730308072
 20
-192.5279567696579
 30
0.0
 10
268.9701234120499
 20
-197.1730016134435
 30
0.0
 10
268.2814589122884
 20
-203.1115986203874
 30
0.0
 10
268.2814589122884
 20
-203.1115986203874
 30
0.0
 10
289.9921721536631
 20
-209.9761638417983
 30
0.0
 10
289.9921721536631
 20
-209.9761638417983
 30
0.0
 10
289.9921721536631
 20
-209.9761638417983
 30
0.0
 10
289.9080443379297
 20
-197.4139699455945
 30
0.0
 10
289.9080443379297
 20
-197.4139699455945
 30
0.0
 10
287.7030618115638
 20
-194.4075140537725
 30
0.0
 10
284.138799242269
 20
-192.4601028856982
 30
0.0
 10
280.1340197136384
 20
-192.4869225126696
 30
0.0
  0
SPLINE
  5
F6
330
ED
100
AcDbEntity
  8
Cut
 62
   179
420
  1842203
370
    35
100
AcDbSpline
210
0.0
220
0.0
230
1.0
 70
    11
 71
     3
 72
    11
 73
     7
 74
     0
 42
0.0000000001
 43
0.0000000001
 12
1.0
 22
0.0
 32
0.0
 13
1.0
 23
0.0
 33
0.0
 40
0.0
 40
0.0
 40
0.0
 40
0.0
 40
1.0
 40
1.0
 40
1.0
 40
2.0
 40
2.0
 40
2.0
 40
2.0
 10
258.2341109860287
 20
-166.0909003559985
 30
0.0
 10
256.1303194757978
 20
-161.9796114068477
 30
0.0
 10
252.5373900968492
 20
-158.7569725016424
 30
0.0
 10
248.173604801015
 20
-157.1348607202382
 30
0.0
 10
249.3677798656029
 20
-161.8425386165335
 30
0.0
 10
253.3447666641142
 20
-165.4426867189098
 30
0.0
 10
258.2341109860287
 20
-166.0909003559985
 30
0.0
  0
SPLINE
  5
F7
330
ED
100
AcDbEntity
  8
Cut
 62
   179
420
  1842203
370
    35
100
AcDbSpline
210
0.0
220
0.0
230
1.0
 70
    11
 71
     3
 72
    17
 73
    13
 74
     0
 42
0.0000000001
 43
0.0000000001
 12
1.0
 22
0.0
 32
0.0
 13
1.0
 23
0.0
 33
0.0
 40
0.0
 40
0.0
 40
0.0
 40
0.0
 40
1.0
 40
1.0
 40
1.0
 40
2.0
 40
2.0
 40
2.0
 40
3.0
 40
3.0
 40
3.0
 40
4.0
 40
4.0
 40
4.0
 40
4.0
 10
269.4585338625816
 20
-161.3489331718584
 30
0.0
 10
270.9673554085012
 20
-159.3251143205271
 30
0.0
 10
271.855362667426
 20
-156.8139507481177
 30
0.0
 10
271.8371937422035
 20
-154.1009174958
 30
0.0
 10
271.8256246067201
 20
-152.3733827691937
 30
0.0
 10
271.4453342231207
 20
-150.7337705197146
 30
0.0
 10
270.7761277868426
 20
-149.252225781717
 30
0.0
 10
269.6103588164287
 20
-151.6968478995635
 30
0.0
 10
268.9646046454869
 20
-154.4339822652206
 30
0.0
 10
268.9839267796935
 20
-157.3192158146415
 30
0.0
 10
268.9932034438024
 20
-158.7044324903169
 30
0.0
 10
269.1600181845666
 20
-160.0516924299236
 30
0.0
 10
269.4585338625816
 20
-161.3489331718584
 30
0.0
  0
SPLINE
  5
F8
330
ED
100
AcDbEntity
  8
Cut
 62
   179
420
  1842203
370
    35
100
AcDbSpline
210
0.0
220
0.0
230
1.0
 70
    11
 71
     3
 72
    20
 73
    16
 74
     0
 42
0.0000000001
 43
0.0000000001
 12
1.0
 22
0.0
 32
0.0
 13
1.0
 23
0.0
 33
0.0
 40
0.0
 40
0.0
 40
0.0
 40
0.0
 40
1.0
 40
1.0
 40
1.0
 40
2.0
 40
2.0
 40
2.0
 40
3.0
 40
3.0
 40
3.0
 40
4.0
 40
4.0
 40
4.0
 40
5.0
 40
5.0
 40
5.0
 40
5.0
 10
289.440229597852
 20
-127.5586025963478
 30
0.0
 10
289.440229597852
 20
-127.5586025963478
 30
0.0
 10
261.1370957577896
 20
-136.9264559771615
 30
0.0
 10
261.1370957577896
 20
-136.9264559771615
 30
0.0
 10
264.6444898295813
 20
-137.1921934613995
 30
0.0
 10
267.8646613577798
 20
-138.5102843204154
 30
0.0
 10
270.4830510067085
 20
-140.5649076232529
 30
0.0
 10
274.7707161647497
 20
-136.1777556373325
 30
0.0
 10
280.7365839784134
 20
-133.4336292317279
 30
0.0
 10
287.3409144207099
 20
-133.3894006599446
 30
0.0
 10
288.0616859023768
 20
-133.384573721999
 30
0.0
 10
288.7747618973185
 20
-133.4138364131461
 30
0.0
 10
289.4798322587663
 20
-133.4721794659108
 30
0.0
 10
289.4798322587663
 20
-133.4721794659108
 30
0.0
 10
289.440229597852
 20
-127.5586025963478
 30
0.0
 10
289.440229597852
 20
-127.5586025963478
 30
0.0
  0
SPLINE
  5
F9
330
ED
100
AcDbEntity
  8
Cut
 62
   179
420
  1842203
370
    35
100
AcDbSpline
210
0.0
220
0.0
230
1.0
 70
    11
 71
     3
 72
    35
 73
    31
 74
     0
 42
0.0000000001
 43
0.0000000001
 12
1.0
 22
0.0
 32
0.0
 13
1.0
 23
0.0
 33
0.0
 40
0.0
 40
0.0
 40
0.0
 40
0.0
 40
1.0
 40
1.0
 40
1.0
 40
2.0
 40
2.0
 40
2.0
 40
3.0
 40
3.0
 40
3.0
 40
4.0
 40
4.0
 40
4.0
 40
5.0
 40
5.0
 40
5.0
 40
6.0
 40
6.0
 40
6.0
 40
7.0
 40
7.0
 40
7.0
 40
8.0
 40
8.0
 40
8.0
 40
9.0
 40
9.0
 40
9.0
 40
10.0
 40
10.0
 40
10.0
 40
10.0
 10
187.691510253214
 20
-164.3046979589342
 30
0.0
 10
194.0640926766198
 20
-164.2620213815548
 30
0.0
 10
199.2830421455988
 20
-169.4115342460816
 30
0.0
 10
199.3257169796539
 20
-175.7838563515779
 30
0.0
 10
199.3380902234422
 20
-177.6314627139193
 30
0.0
 10
198.911605193016
 20
-179.3807398600089
 30
0.0
 10
198.1477378899948
 20
-180.9363784108285
 30
0.0
 10
198.1477378899948
 20
-180.9363784108285
 30
0.0
 10
222.6351813490495
 20
-188.6789232229387
 30
0.0
 10
222.6351813490495
 20
-188.6789232229387
 30
0.0
 10
219.7159048528997
 20
-184.7567580207923
 30
0.0
 10
217.9718485198773
 20
-179.90814954287
 30
0.0
 10
217.9366695442199
 20
-174.6551293685444
 30
0.0
 10
217.9295617933807
 20
-173.5937807119665
 30
0.0
 10
217.9934349869863
 20
-172.5482923841822
 30
0.0
 10
218.1218387773238
 20
-171.522449820331
 30
0.0
 10
216.057794615503
 20
-172.4133879794449
 30
0.0
 10
213.7863871507489
 20
-172.9139838888227
 30
0.0
 10
211.4004758913972
 20
-172.9299621092228
 30
0.0
 10
202.9877169321327
 20
-172.9863015544972
 30
0.0
 10
195.9209297216339
 20
-166.9982762369039
 30
0.0
 10
194.3209918643348
 20
-159.0412785279341
 30
0.0
 10
194.3209918643348
 20
-159.0412785279341
 30
0.0
 10
162.3582343153143
 20
-169.6202873878457
 30
0.0
 10
162.3582343153143
 20
-169.6202873878457
 30
0.0
 10
162.3582343153143
 20
-169.6202873878457
 30
0.0
 10
176.3569828350966
 20
-174.0465115105732
 30
0.0
 10
176.3569828350966
 20
-174.0465115105732
 30
0.0
 10
177.2257805735543
 20
-168.5648882369102
 30
0.0
 10
181.9633610845286
 20
-164.3430588282006
 30
0.0
 10
187.691510253214
 20
-164.3046979589342
 30
0.0
  0
SPLINE
  5
FA
330
ED
100
AcDbEntity
  8
Cut
 62
   179
420
  1842203
370
    35
100
AcDbSpline
210
0.0
220
0.0
230
1.0
 70
    11
 71
     3
 72
    17
 73
    13
 74
     0
 42
0.0000000001
 43
0.0000000001
 12
1.0
 22
0.0
 32
0.0
 13
1.0
 23
0.0
 33
0.0
 40
0.0
 40
0.0
 40
0.0
 40
0.0
 40
1.0
 40
1.0
 40
1.0
 40
2.0
 40
2.0
 40
2.0
 40
3.0
 40
3.0
 40
3.0
 40
4.0
 40
4.0
 40
4.0
 40
4.0
 10
194.036577695391
 20
-175.8192772134724
 30
0.0
 10
194.0134350661141
 20
-172.3635569654862
 30
0.0
 10
191.1829116810048
 20
-169.5706928705947
 30
0.0
 10
187.7269311151092
 20
-169.5938372431966
 30
0.0
 10
184.3479233010646
 20
-169.6164661366121
 30
0.0
 10
181.6043464651247
 20
-172.3236211798508
 30
0.0
 10
181.5057657986884
 20
-175.674430244716
 30
0.0
 10
181.5057657986884
 20
-175.674430244716
 30
0.0
 10
193.0003242104143
 20
-179.3088410010978
 30
0.0
 10
193.0003242104143
 20
-179.3088410010978
 30
0.0
 10
193.6623736273786
 20
-178.3076704232252
 30
0.0
 10
194.0452014845723
 20
-177.1070048320576
 30
0.0
 10
194.036577695391
 20
-175.8192772134724
 30
0.0
  0
SPLINE
  5
FB
330
ED
100
AcDbEntity
  8
Cut
 62
   179
420
  1842203
370
    35
100
AcDbSpline
210
0.0
220
0.0
230
1.0
 70
    11
 71
     3
 72
    17
 73
    13
 74
     0
 42
0.0000000001
 43
0.0000000001
 12
1.0
 22
0.0
 32
0.0
 13
1.0
 23
0.0
 33
0.0
 40
0.0
 40
0.0
 40
0.0
 40
0.0
 40
1.0
 40
1.0
 40
1.0
 40
2.0
 40
2.0
 40
2.0
 40
3.0
 40
3.0
 40
3.0
 40
4.0
 40
4.0
 40
4.0
 40
4.0
 10
211.3650550295021
 20
-167.6408228249599
 30
0.0
 10
217.990926778805
 20
-167.5964499930959
 30
0.0
 10
223.345489289406
 20
-162.1696859657988
 30
0.0
 10
223.3011164575421
 20
-155.5438142164958
 30
0.0
 10
223.2875071968679
 20
-153.5116424563525
 30
0.0
 10
222.765762226614
 20
-151.6002171927824
 30
0.0
 10
221.8602550210185
 20
-149.9263093981992
 30
0.0
 10
221.8602550210185
 20
-149.9263093981992
 30
0.0
 10
199.3961920423377
 20
-157.3614867637229
 30
0.0
 10
199.3961920423377
 20
-157.3614867637229
 30
0.0
 10
200.2455678571904
 20
-163.200002495812
 30
0.0
 10
205.3017465523964
 20
-167.6814282241846
 30
0.0
 10
211.3650550295021
 20
-167.6408228249599
 30
0.0
  0
SPLINE
  5
FC
330
ED
100
AcDbEntity
  8
Cut
 62
   179
420
  1842203
370
    35
100
AcDbSpline
210
0.0
220
0.0
230
1.0
 70
    11
 71
     3
 72
    38
 73
    34
 74
     0
 42
0.0000000001
 43
0.0000000001
 12
1.0
 22
0.0
 32
0.0
 13
1.0
 23
0.0
 33
0.0
 40
0.0
 40
0.0
 40
0.0
 40
0.0
 40
1.0
 40
1.0
 40
1.0
 40
2.0
 40
2.0
 40
2.0
 40
3.0
 40
3.0
 40
3.0
 40
4.0
 40
4.0
 40
4.0
 40
5.0
 40
5.0
 40
5.0
 40
6.0
 40
6.0
 40
6.0
 40
7.0
 40
7.0
 40
7.0
 40
8.0
 40
8.0
 40
8.0
 40
9.0
 40
9.0
 40
9.0
 40
10.0
 40
10.0
 40
10.0
 40
11.0
 40
11.0
 40
11.0
 40
11.0
 10
225.0563620318071
 20
-182.5153510846174
 30
0.0
 10
226.1103346374567
 20
-178.5642344455051
 30
0.0
 10
229.7045799623514
 20
-175.6324779172157
 30
0.0
 10
233.9868746523276
 20
-175.6037997976476
 30
0.0
 10
239.1190422371898
 20
-175.5694301602687
 30
0.0
 10
243.3222423643788
 20
-179.7167079325083
 30
0.0
 10
243.3566120017577
 20
-184.8488755173711
 30
0.0
 10
243.3790246140098
 20
-188.1955876407738
 30
0.0
 10
241.622474991635
 20
-191.1462768461386
 30
0.0
 10
238.9748990374808
 20
-192.8045068269195
 30
0.0
 10
239.9179012435135
 20
-192.9464818704584
 30
0.0
 10
240.8832151453056
 20
-193.0187018720859
 30
0.0
 10
241.866224381007
 20
-193.0121187528845
 30
0.0
 10
252.0761531076568
 20
-192.943743832893
 30
0.0
 10
260.3270095472344
 20
-184.5816319270101
 30
0.0
 10
260.2586346272429
 20
-174.3717032003597
 30
0.0
 10
260.2520542319859
 20
-173.3891007113915
 30
0.0
 10
260.1670286703792
 20
-172.4252466331317
 30
0.0
 10
260.0125692005568
 20
-171.4846038445716
 30
0.0
 10
259.9871077267005
 20
-171.4849045224276
 30
0.0
 10
259.9620480613158
 20
-171.4868946517105
 30
0.0
 10
259.9365531760586
 20
-171.4870653885283
 30
0.0
 10
250.9688452434493
 20
-171.5471212742069
 30
0.0
 10
243.5280765366514
 20
-164.7400653893187
 30
0.0
 10
242.611042686284
 20
-155.9999136329425
 30
0.0
 10
242.2821280940512
 20
-155.9846742604811
 30
0.0
 10
241.9512958398628
 20
-155.9770623707612
 30
0.0
 10
241.6182190747174
 20
-155.9792929541251
 30
0.0
 10
231.4082903480683
 20
-156.0476678741165
 30
0.0
 10
223.1574339084914
 20
-164.4097797799995
 30
0.0
 10
223.2258088284822
 20
-174.6197085066493
 30
0.0
 10
223.2447448163705
 20
-177.4472816391263
 30
0.0
 10
223.9021008194941
 20
-180.1233629536437
 30
0.0
 10
225.0563620318071
 20
-182.5153510846174
 30
0.0
  0
SPLINE
  5
FD
330
ED
100
AcDbEntity
  8
Cut
 62
   179
420
  1842203
370
    35
100
AcDbSpline
210
0.0
220
0.0
230
1.0
 70
    11
 71
     3
 72
    17
 73
    13
 74
     0
 42
0.0000000001
 43
0.0000000001
 12
1.0
 22
0.0
 32
0.0
 13
1.0
 23
0.0
 33
0.0
 40
0.0
 40
0.0
 40
0.0
 40
0.0
 40
1.0
 40
1.0
 40
1.0
 40
2.0
 40
2.0
 40
2.0
 40
3.0
 40
3.0
 40
3.0
 40
4.0
 40
4.0
 40
4.0
 40
4.0
 10
234.0761154201396
 20
-188.9294735825383
 30
0.0
 10
236.2916811474931
 20
-188.9146361499376
 30
0.0
 10
238.082310150096
 20
-187.099862106619
 30
0.0
 10
238.0674727174953
 20
-184.8842963792656
 30
0.0
 10
238.052635284894
 20
-182.6687306519129
 30
0.0
 10
236.2378612415755
 20
-180.8781016493093
 30
0.0
 10
234.0222955142227
 20
-180.8929390819106
 30
0.0
 10
231.8064694689599
 20
-180.9077782578356
 30
0.0
 10
230.0158404663569
 20
-182.7225523011541
 30
0.0
 10
230.0306778989576
 20
-184.9381180285069
 30
0.0
 10
230.0455153315589
 20
-187.1536837558603
 30
0.0
 10
231.8602893748775
 20
-188.9443127584639
 30
0.0
 10
234.0761154201396
 20
-188.9294735825383
 30
0.0
  0
ENDBLK
  5
F0
330
ED
100
AcDbEntity
  8
0
100
AcDbBlockEnd
  0
BLOCK
  5
100
330
FE
100
AcDbEntity
  8
0
100
AcDbBlockBegin
  2
block 10
 70
     0
 10
0.0
 20
0.0
 30
0.0
  3
block 10
  1

  0
SPLINE
  5
102
330
FE
100
AcDbEntity
  8
Cut
 62
   179
420
  1842203
370
    35
100
AcDbSpline
210
0.0
220
0.0
230
1.0
 70
    11
 71
     3
 72
    17
 73
    13
 74
     0
 42
0.0000000001
 43
0.0000000001
 12
1.0
 22
0.0
 32
0.0
 13
1.0
 23
0.0
 33
0.0
 40
0.0
 40
0.0
 40
0.0
 40
0.0
 40
1.0
 40
1.0
 40
1.0
 40
2.0
 40
2.0
 40
2.0
 40
3.0
 40
3.0
 40
3.0
 40
4.0
 40
4.0
 40
4.0
 40
4.0
 10
224.9906988200741
 20
-112.3987733604711
 30
0.0
 10
224.6353993668558
 20
-111.5607436902881
 30
0.0
 10
224.1821128303993
 20
-110.7495935668518
 30
0.0
 10
223.6211803149486
 20
-109.9843455206264
 30
0.0
 10
221.6416606642562
 20
-107.2838004400132
 30
0.0
 10
218.7380605752949
 20
-105.6534242236439
 30
0.0
 10
215.660482808747
 20
-105.2048222725695
 30
0.0
 10
215.8075867582789
 20
-105.4245247838313
 30
0.0
 10
215.9569642005949
 20
-105.6434484253014
 30
0.0
 10
216.1147517200318
 20
-105.858708884701
 30
0.0
 10
218.4241592496918
 20
-109.0093010706249
 30
0.0
 10
221.5505902330618
 20
-111.2124981339964
 30
0.0
 10
224.9906988200741
 20
-112.3987733604711
 30
0.0
  0
SPLINE
  5
103
330
FE
100
AcDbEntity
  8
Cut
 62
   179
420
  1842203
370
    35
100
AcDbSpline
210
0.0
220
0.0
230
1.0
 70
    11
 71
     3
 72
    20
 73
    16
 74
     0
 42
0.0000000001
 43
0.0000000001
 12
1.0
 22
0.0
 32
0.0
 13
1.0
 23
0.0
 33
0.0
 40
0.0
 40
0.0
 40
0.0
 40
0.0
 40
1.0
 40
1.0
 40
1.0
 40
2.0
 40
2.0
 40
2.0
 40
3.0
 40
3.0
 40
3.0
 40
4.0
 40
4.0
 40
4.0
 40
5.0
 40
5.0
 40
5.0
 40
5.0
 10
196.7897723648685
 20
-114.787362356616
 30
0.0
 10
197.3952325590844
 20
-110.2842393152442
 30
0.0
 10
199.7527054420216
 20
-106.0226921503148
 30
0.0
 10
203.698044912937
 20
-103.1307289435552
 30
0.0
 10
205.047293903144
 20
-102.1417193880533
 30
0.0
 10
206.4946846472793
 20
-101.382399709658
 30
0.0
 10
207.9927852165765
 20
-100.8359753666208
 30
0.0
 10
207.1963603937963
 20
-97.72033296876839
 30
0.0
 10
207.0505962957308
 20
-94.49716161713414
 30
0.0
 10
207.5219968136769
 20
-91.36740798363643
 30
0.0
 10
207.5219968136769
 20
-91.36740798363643
 30
0.0
 10
190.1794142066699
 20
-115.3882986362794
 30
0.0
 10
190.1794142066699
 20
-115.3882986362794
 30
0.0
 10
192.3582685721279
 20
-114.8781906456775
 30
0.0
 10
194.5840036744688
 20
-114.6785177194581
 30
0.0
 10
196.7897723648685
 20
-114.787362356616
 30
0.0
  0
SPLINE
  5
104
330
FE
100
AcDbEntity
  8
Cut
 62
   179
420
  1842203
370
    35
100
AcDbSpline
210
0.0
220
0.0
230
1.0
 70
    11
 71
     3
 72
    17
 73
    13
 74
     0
 42
0.0000000001
 43
0.0000000001
 12
1.0
 22
0.0
 32
0.0
 13
1.0
 23
0.0
 33
0.0
 40
0.0
 40
0.0
 40
0.0
 40
0.0
 40
1.0
 40
1.0
 40
1.0
 40
2.0
 40
2.0
 40
2.0
 40
3.0
 40
3.0
 40
3.0
 40
4.0
 40
4.0
 40
4.0
 40
4.0
 10
202.7346670991342
 20
-121.4552087997245
 30
0.0
 10
203.1062114328494
 20
-122.4084215173294
 30
0.0
 10
203.6045030045279
 20
-123.3294890079413
 30
0.0
 10
204.2373459988445
 20
-124.1928403944772
 30
0.0
 10
206.0423413412781
 20
-126.655291975009
 30
0.0
 10
208.615979336548
 20
-128.2270340441152
 30
0.0
 10
211.3889300242829
 20
-128.8255804420636
 30
0.0
 10
211.1336744059409
 20
-128.4129781532965
 30
0.0
 10
210.8659743918958
 20
-128.005140304976
 30
0.0
 10
210.5743695126444
 20
-127.6073204996158
 30
0.0
 10
208.4988537973349
 20
-124.7758134960094
 30
0.0
 10
205.7643409794405
 20
-122.7064715848765
 30
0.0
 10
202.7346670991342
 20
-121.4552087997245
 30
0.0
  0
SPLINE
  5
105
330
FE
100
AcDbEntity
  8
Cut
 62
   179
420
  1842203
370
    35
100
AcDbSpline
210
0.0
220
0.0
230
1.0
 70
    11
 71
     3
 72
    23
 73
    19
 74
     0
 42
0.0000000001
 43
0.0000000001
 12
1.0
 22
0.0
 32
0.0
 13
1.0
 23
0.0
 33
0.0
 40
0.0
 40
0.0
 40
0.0
 40
0.0
 40
1.0
 40
1.0
 40
1.0
 40
2.0
 40
2.0
 40
2.0
 40
3.0
 40
3.0
 40
3.0
 40
4.0
 40
4.0
 40
4.0
 40
5.0
 40
5.0
 40
5.0
 40
6.0
 40
6.0
 40
6.0
 40
6.0
 10
213.1944423431304
 20
-99.80451127157436
 30
0.0
 10
218.7655676240198
 20
-99.57607987500663
 30
0.0
 10
224.3501627508111
 20
-102.0320970955541
 30
0.0
 10
227.8871271708935
 20
-106.857374713592
 30
0.0
 10
229.3678520393432
 20
-108.8774426921223
 30
0.0
 10
230.3398782145962
 20
-111.1155417191939
 30
0.0
 10
230.8362892060134
 20
-113.4190395905682
 30
0.0
 10
234.7129576372249
 20
-113.4683017780419
 30
0.0
 10
238.6357160902069
 20
-112.3093004996592
 30
0.0
 10
241.9963591279717
 20
-109.8459241316908
 30
0.0
 10
250.2311608622488
 20
-103.8097531491798
 30
0.0
 10
252.0198992589773
 20
-92.1993284170232
 30
0.0
 10
245.9837282764669
 20
-83.96452668274645
 30
0.0
 10
239.9475572939572
 20
-75.72972494846842
 30
0.0
 10
228.337132561799
 20
-73.94098655173893
 30
0.0
 10
220.1023308275226
 20
-79.97715753424963
 30
0.0
 10
213.7450217918815
 20
-84.63711239
 30
0.0
 10
211.2339997447245
 20
-92.61816636898425
 30
0.0
 10
213.1944423431304
 20
-99.80451127157436
 30
0.0
  0
SPLINE
  5
106
330
FE
100
AcDbEntity
  8
Cut
 62
   179
420
  1842203
370
    35
100
AcDbSpline
210
0.0
220
0.0
230
1.0
 70
    11
 71
     3
 72
    29
 73
    25
 74
     0
 42
0.0000000001
 43
0.0000000001
 12
1.0
 22
0.0
 32
0.0
 13
1.0
 23
0.0
 33
0.0
 40
0.0
 40
0.0
 40
0.0
 40
0.0
 40
1.0
 40
1.0
 40
1.0
 40
2.0
 40
2.0
 40
2.0
 40
3.0
 40
3.0
 40
3.0
 40
4.0
 40
4.0
 40
4.0
 40
5.0
 40
5.0
 40
5.0
 40
6.0
 40
6.0
 40
6.0
 40
7.0
 40
7.0
 40
7.0
 40
8.0
 40
8.0
 40
8.0
 40
8.0
 10
221.0335105938219
 20
-126.7805101156032
 30
0.0
 10
223.9321519860095
 20
-124.6557843936231
 30
0.0
 10
225.5969248507382
 20
-121.4664354404775
 30
0.0
 10
225.8913553874936
 20
-118.1400010140973
 30
0.0
 10
220.4455058752736
 20
-116.9342848314503
 30
0.0
 10
215.3976581755382
 20
-113.8271766421207
 30
0.0
 10
211.8488048640863
 20
-108.9856796917332
 30
0.0
 10
211.093340844546
 20
-107.9550434761066
 30
0.0
 10
210.4345400938452
 20
-106.8829244297037
 30
0.0
 10
209.8681255771643
 20
-105.7806882844843
 30
0.0
 10
208.8061130530937
 20
-106.1614987996952
 30
0.0
 10
207.7802110442859
 20
-106.6965105149778
 30
0.0
 10
206.8250157199706
 20
-107.3966757995007
 30
0.0
 10
204.0458016285016
 20
-109.4338604208714
 30
0.0
 10
202.4010627547456
 20
-112.4498021891036
 30
0.0
 10
202.0104869926023
 20
-115.6268247566188
 30
0.0
 10
206.9890668975392
 20
-117.0046305095375
 30
0.0
 10
211.5563660250288
 20
-120.0002446619625
 30
0.0
 10
214.8403163685899
 20
-124.4803496925839
 30
0.0
 10
215.8097804327793
 20
-125.8029338904527
 30
0.0
 10
216.6222585574359
 20
-127.193304153904
 30
0.0
 10
217.2811869395286
 20
-128.6289299883963
 30
0.0
 10
218.5960504634452
 20
-128.2484512184856
 30
0.0
 10
219.8669915412603
 20
-127.6355772663185
 30
0.0
 10
221.0335105938219
 20
-126.7805101156032
 30
0.0
  0
SPLINE
  5
107
330
FE
100
AcDbEntity
  8
Cut
 62
   179
420
  1842203
370
    35
100
AcDbSpline
210
0.0
220
0.0
230
1.0
 70
    11
 71
     3
 72
    17
 73
    13
 74
     0
 42
0.0000000001
 43
0.0000000001
 12
1.0
 22
0.0
 32
0.0
 13
1.0
 23
0.0
 33
0.0
 40
0.0
 40
0.0
 40
0.0
 40
0.0
 40
1.0
 40
1.0
 40
1.0
 40
2.0
 40
2.0
 40
2.0
 40
3.0
 40
3.0
 40
3.0
 40
4.0
 40
4.0
 40
4.0
 40
4.0
 10
171.3009762568561
 20
-143.0071583901572
 30
0.0
 10
171.1232200169644
 20
-142.7646557511858
 30
0.0
 10
170.9355860152081
 20
-142.5338316719464
 30
0.0
 10
170.7434645187007
 20
-142.3086370418706
 30
0.0
 10
170.7434645187007
 20
-142.3086370418706
 30
0.0
 10
158.7955817836936
 20
-158.8575449714921
 30
0.0
 10
158.7955817836936
 20
-158.8575449714921
 30
0.0
 10
158.7955817836936
 20
-158.8575449714921
 30
0.0
 10
172.9095642510312
 20
-154.186509138888
 30
0.0
 10
172.9095642510312
 20
-154.186509138888
 30
0.0
 10
174.2145103597653
 20
-150.5506606133426
 30
0.0
 10
173.7515114678845
 20
-146.3502829742955
 30
0.0
 10
171.3009762568561
 20
-143.0071583901572
 30
0.0
  0
SPLINE
  5
108
330
FE
100
AcDbEntity
  8
Cut
 62
   179
420
  1842203
370
    35
100
AcDbSpline
210
0.0
220
0.0
230
1.0
 70
    11
 71
     3
 72
    17
 73
    13
 74
     0
 42
0.0000000001
 43
0.0000000001
 12
1.0
 22
0.0
 32
0.0
 13
1.0
 23
0.0
 33
0.0
 40
0.0
 40
0.0
 40
0.0
 40
0.0
 40
1.0
 40
1.0
 40
1.0
 40
2.0
 40
2.0
 40
2.0
 40
3.0
 40
3.0
 40
3.0
 40
4.0
 40
4.0
 40
4.0
 40
4.0
 10
243.4815650987657
 20
-74.23346102845449
 30
0.0
 10
244.7914208197348
 20
-76.02042203302902
 30
0.0
 10
247.3111547904073
 20
-76.40862014006356
 30
0.0
 10
249.0981157949812
 20
-75.09876441909412
 30
0.0
 10
250.8850767995563
 20
-73.78890869812341
 30
0.0
 10
251.2732749065912
 20
-71.26917472745157
 30
0.0
 10
249.9634191856208
 20
-69.48221372287702
 30
0.0
 10
248.6535634646523
 20
-67.6952527183012
 30
0.0
 10
246.1338294939786
 20
-67.30705461126794
 30
0.0
 10
244.346868489404
 20
-68.61691033223738
 30
0.0
 10
242.5599074848289
 20
-69.92676605320682
 30
0.0
 10
242.1717093777953
 20
-72.44650002388026
 30
0.0
 10
243.4815650987657
 20
-74.23346102845449
 30
0.0
  0
SPLINE
  5
109
330
FE
100
AcDbEntity
  8
Cut
 62
   179
420
  1842203
370
    35
100
AcDbSpline
210
0.0
220
0.0
230
1.0
 70
    11
 71
     3
 72
    32
 73
    28
 74
     0
 42
0.0000000001
 43
0.0000000001
 12
1.0
 22
0.0
 32
0.0
 13
1.0
 23
0.0
 33
0.0
 40
0.0
 40
0.0
 40
0.0
 40
0.0
 40
1.0
 40
1.0
 40
1.0
 40
2.0
 40
2.0
 40
2.0
 40
3.0
 40
3.0
 40
3.0
 40
4.0
 40
4.0
 40
4.0
 40
5.0
 40
5.0
 40
5.0
 40
6.0
 40
6.0
 40
6.0
 40
7.0
 40
7.0
 40
7.0
 40
8.0
 40
8.0
 40
8.0
 40
9.0
 40
9.0
 40
9.0
 40
9.0
 10
213.6784955805772
 20
-134.3841367755804
 30
0.0
 10
208.4413152738021
 20
-134.3020196435133
 30
0.0
 10
203.2997115956793
 20
-131.8604369123779
 30
0.0
 10
199.9713991428983
 20
-127.3198112015107
 30
0.0
 10
198.3480845287694
 20
-125.1052162143178
 30
0.0
 10
197.3336293238576
 20
-122.6291085403863
 30
0.0
 10
196.8906303787473
 20
-120.0914255022339
 30
0.0
 10
192.6816712081246
 20
-119.8029517558055
 30
0.0
 10
188.3538206644276
 20
-120.9361993004084
 30
0.0
 10
184.6928181621933
 20
-123.6197413921264
 30
0.0
 10
184.318933682239
 20
-123.8938014996476
 30
0.0
 10
183.9630926388618
 20
-124.1831200814483
 30
0.0
 10
183.6158719981261
 20
-124.4792727191817
 30
0.0
 10
183.6158719981261
 20
-124.4792727191817
 30
0.0
 10
178.4999451940651
 20
-131.5652739213782
 30
0.0
 10
178.4999451940651
 20
-131.5652739213782
 30
0.0
 10
176.1624030661187
 20
-137.3248730409434
 30
0.0
 10
176.7685539471234
 20
-144.1306991253439
 30
0.0
 10
180.7053929562092
 20
-149.501502701572
 30
0.0
 10
181.1338547500268
 20
-150.0860285430404
 30
0.0
 10
181.5932262735806
 20
-150.6342602923068
 30
0.0
 10
182.0746558687378
 20
-151.1533318205801
 30
0.0
 10
182.0746558687378
 20
-151.1533318205801
 30
0.0
 10
214.0329172481935
 20
-140.5768370214591
 30
0.0
 10
214.0329172481935
 20
-140.5768370214591
 30
0.0
 10
214.2593735454653
 20
-138.5218317674007
 30
0.0
 10
214.1477606120296
 20
-136.4269650631802
 30
0.0
 10
213.6784955805772
 20
-134.3841367755804
 30
0.0
  0
SPLINE
  5
10A
330
FE
100
AcDbEntity
  8
Cut
 62
   179
420
  1842203
370
    35
100
AcDbSpline
210
0.0
220
0.0
230
1.0
 70
    11
 71
     3
 72
    20
 73
    16
 74
     0
 42
0.0000000001
 43
0.0000000001
 12
1.0
 22
0.0
 32
0.0
 13
1.0
 23
0.0
 33
0.0
 40
0.0
 40
0.0
 40
0.0
 40
0.0
 40
1.0
 40
1.0
 40
1.0
 40
2.0
 40
2.0
 40
2.0
 40
3.0
 40
3.0
 40
3.0
 40
4.0
 40
4.0
 40
4.0
 40
5.0
 40
5.0
 40
5.0
 40
5.0
 10
237.1530688441255
 20
-50.32587644076109
 30
0.0
 10
237.1530688441255
 20
-50.32587644076109
 30
0.0
 10
220.297757323249
 20
-73.67182674866496
 30
0.0
 10
220.297757323249
 20
-73.67182674866496
 30
0.0
 10
225.6990976877925
 20
-70.93412690258458
 30
0.0
 10
231.8203436245518
 20
-70.43406241440752
 30
0.0
 10
237.4215967709405
 20
-71.984603360255
 30
0.0
 10
237.3859567267978
 20
-69.0783628292052
 30
0.0
 10
238.702266253524
 20
-66.19640605837769
 30
0.0
 10
241.2198976823705
 20
-64.35096347629121
 30
0.0
 10
242.7074571603893
 20
-63.26057130344827
 30
0.0
 10
244.4141686320392
 20
-62.68081988035662
 30
0.0
 10
246.1311825475998
 20
-62.57420182950818
 30
0.0
 10
246.1311825475998
 20
-62.57420182950818
 30
0.0
 10
237.1530688441255
 20
-50.32587644076109
 30
0.0
 10
237.1530688441255
 20
-50.32587644076109
 30
0.0
  0
SPLINE
  5
10B
330
FE
100
AcDbEntity
  8
Cut
 62
   179
420
  1842203
370
    35
100
AcDbSpline
210
0.0
220
0.0
230
1.0
 70
    11
 71
     3
 72
    20
 73
    16
 74
     0
 42
0.0000000001
 43
0.0000000001
 12
1.0
 22
0.0
 32
0.0
 13
1.0
 23
0.0
 33
0.0
 40
0.0
 40
0.0
 40
0.0
 40
0.0
 40
1.0
 40
1.0
 40
1.0
 40
2.0
 40
2.0
 40
2.0
 40
3.0
 40
3.0
 40
3.0
 40
4.0
 40
4.0
 40
4.0
 40
5.0
 40
5.0
 40
5.0
 40
5.0
 10
271.2772167839875
 20
-112.1332183127681
 30
0.0
 10
270.6310154878033
 20
-112.60688867409
 30
0.0
 10
269.9521692825102
 20
-113.0044293139464
 30
0.0
 10
269.2518523509734
 20
-113.3300761159756
 30
0.0
 10
271.0083620960106
 20
-115.9846114236356
 30
0.0
 10
271.2260864381303
 20
-119.2526732889164
 30
0.0
 10
270.0794733120706
 20
-122.02831645151
 30
0.0
 10
270.0794733120706
 20
-122.02831645151
 30
0.0
 10
285.8787859502286
 20
-116.7995765549268
 30
0.0
 10
285.8787859502286
 20
-116.7995765549268
 30
0.0
 10
285.8787859502286
 20
-116.7995765549268
 30
0.0
 10
276.1058479169518
 20
-103.4669179376353
 30
0.0
 10
276.1058479169518
 20
-103.4669179376353
 30
0.0
 10
275.8362867811491
 20
-106.8010251960275
 30
0.0
 10
274.1804510291865
 20
-110.0051259953345
 30
0.0
 10
271.2772167839875
 20
-112.1332183127681
 30
0.0
  0
SPLINE
  5
10C
330
FE
100
AcDbEntity
  8
Cut
 62
   179
420
  1842203
370
    35
100
AcDbSpline
210
0.0
220
0.0
230
1.0
 70
    11
 71
     3
 72
    26
 73
    22
 74
     0
 42
0.0000000001
 43
0.0000000001
 12
1.0
 22
0.0
 32
0.0
 13
1.0
 23
0.0
 33
0.0
 40
0.0
 40
0.0
 40
0.0
 40
0.0
 40
1.0
 40
1.0
 40
1.0
 40
2.0
 40
2.0
 40
2.0
 40
3.0
 40
3.0
 40
3.0
 40
4.0
 40
4.0
 40
4.0
 40
5.0
 40
5.0
 40
5.0
 40
6.0
 40
6.0
 40
6.0
 40
7.0
 40
7.0
 40
7.0
 40
7.0
 10
252.2250866020153
 20
-79.36471127503933
 30
0.0
 10
251.5357912221517
 20
-79.86996992055019
 30
0.0
 10
250.7988530750191
 20
-80.26369420672236
 30
0.0
 10
250.0362339887158
 20
-80.5539936959086
 30
0.0
 10
250.1075478487751
 20
-80.64833835296216
 30
0.0
 10
250.1795345208706
 20
-80.74186706384106
 30
0.0
 10
250.2496751324131
 20
-80.83755587571294
 30
0.0
 10
253.4104273200998
 20
-85.14958873101209
 30
0.0
 10
254.9019434315164
 20
-90.18150155942284
 30
0.0
 10
254.8448229910856
 20
-95.15594156440056
 30
0.0
 10
255.5008663847414
 20
-94.31888023823505
 30
0.0
 10
256.2774252391434
 20
-93.55502653944721
 30
0.0
 10
257.17629906311
 20
-92.89614533401607
 30
0.0
 10
260.0795333083084
 20
-90.76805301658275
 30
0.0
 10
263.6334363387021
 20
-90.15337649990092
 30
0.0
 10
266.8940347760097
 20
-90.89976981531395
 30
0.0
 10
266.8940347760097
 20
-90.89976981531395
 30
0.0
 10
255.3976691986913
 20
-75.21593788472515
 30
0.0
 10
255.3976691986913
 20
-75.21593788472515
 30
0.0
 10
254.7792042358122
 20
-76.82124324031477
 30
0.0
 10
253.7126460800328
 20
-78.27431910219573
 30
0.0
 10
252.2250866020153
 20
-79.36471127503933
 30
0.0
  0
SPLINE
  5
10D
330
FE
100
AcDbEntity
  8
Cut
 62
   179
420
  1842203
370
    35
100
AcDbSpline
210
0.0
220
0.0
230
1.0
 70
    11
 71
     3
 72
    17
 73
    13
 74
     0
 42
0.0000000001
 43
0.0000000001
 12
1.0
 22
0.0
 32
0.0
 13
1.0
 23
0.0
 33
0.0
 40
0.0
 40
0.0
 40
0.0
 40
0.0
 40
1.0
 40
1.0
 40
1.0
 40
2.0
 40
2.0
 40
2.0
 40
3.0
 40
3.0
 40
3.0
 40
4.0
 40
4.0
 40
4.0
 40
4.0
 10
258.8739863598675
 20
-106.4381418480535
 30
0.0
 10
261.0373798353307
 20
-109.3895354376791
 30
0.0
 10
265.1988523873287
 20
-110.0306649322846
 30
0.0
 10
268.1502459769553
 20
-107.8672714568229
 30
0.0
 10
271.1016395665805
 20
-105.7038779813587
 30
0.0
 10
271.7427690611873
 20
-101.5424054293623
 30
0.0
 10
269.579375585724
 20
-98.59101183973549
 30
0.0
 10
267.4159821102608
 20
-95.63961825010993
 30
0.0
 10
263.2546634597688
 20
-94.99869871449833
 30
0.0
 10
260.3032698701429
 20
-97.1620921899616
 30
0.0
 10
257.3518762805164
 20
-99.32548566542583
 30
0.0
 10
256.7105928844042
 20
-103.4867482584267
 30
0.0
 10
258.8739863598675
 20
-106.4381418480535
 30
0.0
  0
SPLINE
  5
10E
330
FE
100
AcDbEntity
  8
Cut
 62
   179
420
  1842203
370
    35
100
AcDbSpline
210
0.0
220
0.0
230
1.0
 70
    11
 71
     3
 72
    35
 73
    31
 74
     0
 42
0.0000000001
 43
0.0000000001
 12
1.0
 22
0.0
 32
0.0
 13
1.0
 23
0.0
 33
0.0
 40
0.0
 40
0.0
 40
0.0
 40
0.0
 40
1.0
 40
1.0
 40
1.0
 40
2.0
 40
2.0
 40
2.0
 40
3.0
 40
3.0
 40
3.0
 40
4.0
 40
4.0
 40
4.0
 40
5.0
 40
5.0
 40
5.0
 40
6.0
 40
6.0
 40
6.0
 40
7.0
 40
7.0
 40
7.0
 40
8.0
 40
8.0
 40
8.0
 40
9.0
 40
9.0
 40
9.0
 40
10.0
 40
10.0
 40
10.0
 40
10.0
 10
253.9804005851454
 20
-123.9643194928919
 30
0.0
 10
250.9717415611572
 20
-119.8597786141839
 30
0.0
 10
251.8323351212832
 20
-114.088684370807
 30
0.0
 10
255.8827265808603
 20
-111.0336183914228
 30
0.0
 10
255.4260286986707
 20
-110.5858256081248
 30
0.0
 10
254.998218298022
 20
-110.0974111966028
 30
0.0
 10
254.608039503922
 20
-109.5651126550867
 30
0.0
 10
253.5912892018917
 20
-108.1780185560709
 30
0.0
 10
252.9225558425024
 20
-106.641774681367
 30
0.0
 10
252.5793386488985
 20
-105.0603449229863
 30
0.0
 10
250.9438823711058
 20
-108.5450839929702
 30
0.0
 10
248.4405770730356
 20
-111.6803041372707
 30
0.0
 10
245.1233299350052
 20
-114.1118709876357
 30
0.0
 10
240.9104108476789
 20
-117.1999720454584
 30
0.0
 10
236.0103681118302
 20
-118.693412442226
 30
0.0
 10
231.1481047169817
 20
-118.7072603964362
 30
0.0
 10
230.6986613561721
 20
-123.4601064350804
 30
0.0
 10
228.3047307744506
 20
-128.0086913251628
 30
0.0
 10
224.1604814008548
 20
-131.0464569715497
 30
0.0
 10
222.5334304156796
 20
-132.2390974577075
 30
0.0
 10
220.7646433522008
 20
-133.1011831988028
 30
0.0
 10
218.9346368211578
 20
-133.6522894012527
 30
0.0
 10
219.2892948125567
 20
-135.3501642458297
 30
0.0
 10
219.453030812502
 20
-137.0731609237596
 30
0.0
 10
219.4340177168437
 20
-138.7893863534579
 30
0.0
 10
219.4340177168437
 20
-138.7893863534579
 30
0.0
 10
256.7134270234158
 20
-126.4517697000744
 30
0.0
 10
256.7134270234158
 20
-126.4517697000744
 30
0.0
 10
255.6740281995656
 20
-125.8326855677366
 30
0.0
 10
254.7395197654633
 20
-124.9999422346461
 30
0.0
 10
253.9804005851454
 20
-123.9643194928919
 30
0.0
  0
SPLINE
  5
10F
330
FE
100
AcDbEntity
  8
Cut
 62
   179
420
  1842203
370
    35
100
AcDbSpline
210
0.0
220
0.0
230
1.0
 70
    11
 71
     3
 72
    17
 73
    13
 74
     0
 42
0.0000000001
 43
0.0000000001
 12
1.0
 22
0.0
 32
0.0
 13
1.0
 23
0.0
 33
0.0
 40
0.0
 40
0.0
 40
0.0
 40
0.0
 40
1.0
 40
1.0
 40
1.0
 40
2.0
 40
2.0
 40
2.0
 40
3.0
 40
3.0
 40
3.0
 40
4.0
 40
4.0
 40
4.0
 40
4.0
 10
264.7282015279467
 20
-116.086101380281
 30
0.0
 10
263.4183458069783
 20
-114.2991403757067
 30
0.0
 10
260.8986118363051
 20
-113.9109422686722
 30
0.0
 10
259.1116508317312
 20
-115.2207979896426
 30
0.0
 10
257.324689827156
 20
-116.5306537106107
 30
0.0
 10
256.9364917201218
 20
-119.0503876812842
 30
0.0
 10
258.2463474410909
 20
-120.8373486858584
 30
0.0
 10
259.5562031620607
 20
-122.6243096904342
 30
0.0
 10
262.0759371327331
 20
-123.0125077974675
 30
0.0
 10
263.8628981373084
 20
-121.7026520764981
 30
0.0
 10
265.6498591418829
 20
-120.3927963555273
 30
0.0
 10
266.0380572489178
 20
-117.8730623848558
 30
0.0
 10
264.7282015279467
 20
-116.086101380281
 30
0.0
  0
ENDBLK
  5
101
330
FE
100
AcDbEntity
  8
0
100
AcDbBlockEnd
  0
BLOCK
  5
123
330
121
100
AcDbEntity
  8
0
100
AcDbBlockBegin
  2
block 11
 70
     0
 10
0.0
 20
0.0
 30
0.0
  3
block 11
  1

  0
SPLINE
  5
125
330
121
100
AcDbEntity
  8
Cut
 62
   179
420
  1842203
370
    35
100
AcDbSpline
210
0.0
220
0.0
230
1.0
 70
    11
 71
     3
 72
    14
 73
    10
 74
     0
 42
0.0000000001
 43
0.0000000001
 12
1.0
 22
0.0
 32
0.0
 13
1.0
 23
0.0
 33
0.0
 40
0.0
 40
0.0
 40
0.0
 40
0.0
 40
1.0
 40
1.0
 40
1.0
 40
2.0
 40
2.0
 40
2.0
 40
3.0
 40
3.0
 40
3.0
 40
3.0
 10
212.2113897769472
 20
20.61064195112074
 30
0.0
 10
209.6986980269074
 20
22.7997239281252
 30
0.0
 10
207.9545502563299
 20
25.5972157406157
 30
0.0
 10
207.0385994787312
 20
28.62457980638811
 30
0.0
 10
207.0385994787312
 20
28.62457980638811
 30
0.0
 10
202.587921452462
 20
14.5475881178471
 30
0.0
 10
202.587921452462
 20
14.5475881178471
 30
0.0
 10
205.3154940330878
 20
17.38228832135781
 30
0.0
 10
208.6339945609936
 20
19.42408154467008
 30
0.0
 10
212.2113897769472
 20
20.61064195112074
 30
0.0
  0
SPLINE
  5
126
330
121
100
AcDbEntity
  8
Cut
 62
   179
420
  1842203
370
    35
100
AcDbSpline
210
0.0
220
0.0
230
1.0
 70
    11
 71
     3
 72
    14
 73
    10
 74
     0
 42
0.0000000001
 43
0.0000000001
 12
1.0
 22
0.0
 32
0.0
 13
1.0
 23
0.0
 33
0.0
 40
0.0
 40
0.0
 40
0.0
 40
0.0
 40
1.0
 40
1.0
 40
1.0
 40
2.0
 40
2.0
 40
2.0
 40
3.0
 40
3.0
 40
3.0
 40
3.0
 10
196.2183248024536
 20
-5.598605673270615
 30
0.0
 10
196.2183248024536
 20
-5.598605673270615
 30
0.0
 10
194.1762828730237
 20
-12.05740325972023
 30
0.0
 10
194.1762828730237
 20
-12.05740325972023
 30
0.0
 10
195.3849968436991
 20
-11.67177116232089
 30
0.0
 10
196.6485527041058
 20
-11.4745644218964
 30
0.0
 10
197.9185091239192
 20
-11.48368673327834
 30
0.0
 10
197.099639320594
 20
-9.59855760323508
 30
0.0
 10
196.5308045675923
 20
-7.61870016623928
 30
0.0
 10
196.2183248024536
 20
-5.598605673270615
 30
0.0
  0
SPLINE
  5
127
330
121
100
AcDbEntity
  8
Cut
 62
   179
420
  1842203
370
    35
100
AcDbSpline
210
0.0
220
0.0
230
1.0
 70
    11
 71
     3
 72
    17
 73
    13
 74
     0
 42
0.0000000001
 43
0.0000000001
 12
1.0
 22
0.0
 32
0.0
 13
1.0
 23
0.0
 33
0.0
 40
0.0
 40
0.0
 40
0.0
 40
0.0
 40
1.0
 40
1.0
 40
1.0
 40
2.0
 40
2.0
 40
2.0
 40
3.0
 40
3.0
 40
3.0
 40
4.0
 40
4.0
 40
4.0
 40
4.0
 10
203.2205674550049
 20
-27.25356462344904
 30
0.0
 10
205.3442820535749
 20
-24.27349218231908
 30
0.0
 10
204.6475356179666
 20
-20.12096942689181
 30
0.0
 10
201.667463176836
 20
-17.99725482831993
 30
0.0
 10
198.6873907357067
 20
-15.87354022974997
 30
0.0
 10
194.5350799794556
 20
-16.57043774415214
 30
0.0
 10
192.4113653808857
 20
-19.55051018528146
 30
0.0
 10
190.2876507823157
 20
-22.53058262641141
 30
0.0
 10
190.9841852187458
 20
-26.6829543030461
 30
0.0
 10
193.9642576598764
 20
-28.80666890161733
 30
0.0
 10
196.944330101007
 20
-30.93038350018857
 30
0.0
 10
201.0968528564337
 20
-30.23363706457899
 30
0.0
 10
203.2205674550049
 20
-27.25356462344904
 30
0.0
  0
SPLINE
  5
128
330
121
100
AcDbEntity
  8
Cut
 62
   179
420
  1842203
370
    35
100
AcDbSpline
210
0.0
220
0.0
230
1.0
 70
    11
 71
     3
 72
    17
 73
    13
 74
     0
 42
0.0000000001
 43
0.0000000001
 12
1.0
 22
0.0
 32
0.0
 13
1.0
 23
0.0
 33
0.0
 40
0.0
 40
0.0
 40
0.0
 40
0.0
 40
1.0
 40
1.0
 40
1.0
 40
2.0
 40
2.0
 40
2.0
 40
3.0
 40
3.0
 40
3.0
 40
4.0
 40
4.0
 40
4.0
 40
4.0
 10
235.5430332173233
 20
32.48623156140727
 30
0.0
 10
235.9387467312476
 20
36.62284303156973
 30
0.0
 10
234.1830167261874
 20
40.85630701505063
 30
0.0
 10
230.5626007687717
 20
43.43635510903069
 30
0.0
 10
228.3715362673007
 20
44.99779220833224
 30
0.0
 10
225.8305555821804
 20
45.71710118980792
 30
0.0
 10
223.3275788927152
 20
45.6596156577978
 30
0.0
 10
223.8672707730264
 20
41.53504436536079
 30
0.0
 10
226.0473448312771
 20
37.63574684725639
 30
0.0
 10
229.6940486867293
 20
35.03696498289623
 30
0.0
 10
231.5024546724267
 20
33.74822510565028
 30
0.0
 10
233.4960987651986
 20
32.90792684820518
 30
0.0
 10
235.5430332173233
 20
32.48623156140727
 30
0.0
  0
SPLINE
  5
129
330
121
100
AcDbEntity
  8
Cut
 62
   179
420
  1842203
370
    35
100
AcDbSpline
210
0.0
220
0.0
230
1.0
 70
    11
 71
     3
 72
    26
 73
    22
 74
     0
 42
0.0000000001
 43
0.0000000001
 12
1.0
 22
0.0
 32
0.0
 13
1.0
 23
0.0
 33
0.0
 40
0.0
 40
0.0
 40
0.0
 40
0.0
 40
1.0
 40
1.0
 40
1.0
 40
2.0
 40
2.0
 40
2.0
 40
3.0
 40
3.0
 40
3.0
 40
4.0
 40
4.0
 40
4.0
 40
5.0
 40
5.0
 40
5.0
 40
6.0
 40
6.0
 40
6.0
 40
7.0
 40
7.0
 40
7.0
 40
7.0
 10
223.5402520411321
 20
50.94545711999075
 30
0.0
 10
227.0384825092072
 20
50.95996557043927
 30
0.0
 10
230.5722235615782
 20
49.92442570550662
 30
0.0
 10
233.6322196927064
 20
47.74375440183056
 30
0.0
 10
238.7454808597926
 20
44.09984721455101
 30
0.0
 10
241.279857561328
 20
38.16591455119647
 30
0.0
 10
240.8384915275055
 20
32.31934970069468
 30
0.0
 10
244.9109785117603
 20
32.88982553038883
 30
0.0
 10
248.7515609596751
 20
35.06045615933886
 30
0.0
 10
251.3207880350796
 20
38.66568767565099
 30
0.0
 10
252.7060861461466
 20
40.60958763580595
 30
0.0
 10
253.576624576334
 20
42.76708639253357
 30
0.0
 10
253.9619789089478
 20
44.97519651594824
 30
0.0
 10
253.9619789089478
 20
44.97519651594824
 30
0.0
 10
231.1672178234708
 20
61.2196227319096
 30
0.0
 10
231.1672178234708
 20
61.2196227319096
 30
0.0
 10
229.205835103832
 20
60.13465124334648
 30
0.0
 10
227.4506241050422
 20
58.6076042914002
 30
0.0
 10
226.0653259939752
 20
56.66370433124588
 30
0.0
 10
224.8039880328775
 20
54.89374969640656
 30
0.0
 10
223.970550181675
 20
52.94654262509005
 30
0.0
 10
223.5402520411321
 20
50.94545711999075
 30
0.0
  0
SPLINE
  5
12A
330
121
100
AcDbEntity
  8
Cut
 62
   179
420
  1842203
370
    35
100
AcDbSpline
210
0.0
220
0.0
230
1.0
 70
    11
 71
     3
 72
    17
 73
    13
 74
     0
 42
0.0000000001
 43
0.0000000001
 12
1.0
 22
0.0
 32
0.0
 13
1.0
 23
0.0
 33
0.0
 40
0.0
 40
0.0
 40
0.0
 40
0.0
 40
1.0
 40
1.0
 40
1.0
 40
2.0
 40
2.0
 40
2.0
 40
3.0
 40
3.0
 40
3.0
 40
4.0
 40
4.0
 40
4.0
 40
4.0
 10
234.8115484207318
 20
-12.71173337327938
 30
0.0
 10
240.7370097759667
 20
-4.396913624147275
 30
0.0
 10
238.7931012323061
 20
7.188541355564158
 30
0.0
 10
230.4782814831734
 20
13.114002710799
 30
0.0
 10
222.1634617340406
 20
19.03946406603448
 30
0.0
 10
210.5780067543292
 20
17.09555552237392
 30
0.0
 10
204.6525453990944
 20
8.780735773241823
 30
0.0
 10
198.7270840438595
 20
0.4659160241084384
 30
0.0
 10
200.6709925875201
 20
-11.11953895560235
 30
0.0
 10
208.9858123366528
 20
-17.04500031083848
 30
0.0
 10
217.3006320857855
 20
-22.97046166607204
 30
0.0
 10
228.886087065497
 20
-21.02655312241276
 30
0.0
 10
234.8115484207318
 20
-12.71173337327938
 30
0.0
  0
SPLINE
  5
12B
330
121
100
AcDbEntity
  8
Cut
 62
   179
420
  1842203
370
    35
100
AcDbSpline
210
0.0
220
0.0
230
1.0
 70
    11
 71
     3
 72
    23
 73
    19
 74
     0
 42
0.0000000001
 43
0.0000000001
 12
1.0
 22
0.0
 32
0.0
 13
1.0
 23
0.0
 33
0.0
 40
0.0
 40
0.0
 40
0.0
 40
0.0
 40
1.0
 40
1.0
 40
1.0
 40
2.0
 40
2.0
 40
2.0
 40
3.0
 40
3.0
 40
3.0
 40
4.0
 40
4.0
 40
4.0
 40
5.0
 40
5.0
 40
5.0
 40
6.0
 40
6.0
 40
6.0
 40
6.0
 10
213.8025585449962
 20
40.62420924786674
 30
0.0
 10
209.9571500170435
 20
35.22819417750488
 30
0.0
 10
211.2186893357983
 20
27.70957555204307
 30
0.0
 10
216.6147044061599
 20
23.86416702409162
 30
0.0
 10
222.0107194765227
 20
20.01875849613952
 30
0.0
 10
229.5293381019838
 20
21.28029781489371
 30
0.0
 10
233.3747466299353
 20
26.67631288525526
 30
0.0
 10
233.5528590849081
 20
26.92624666583149
 30
0.0
 10
233.7162842156929
 20
27.18209199178456
 30
0.0
 10
233.8725854513801
 20
27.44055666512203
 30
0.0
 10
231.3371244421142
 20
28.04145253044039
 30
0.0
 10
228.8738470379307
 20
29.12654415291745
 30
0.0
 10
226.6244297627946
 20
30.72956569009669
 30
0.0
 10
221.9118205416907
 20
34.08795284273315
 30
0.0
 10
219.0244747742575
 20
39.0655753831973
 30
0.0
 10
218.1727068080501
 20
44.37255432755154
 30
0.0
 10
216.4849605701366
 20
43.52364549801761
 30
0.0
 10
214.973069823996
 20
42.26671262705408
 30
0.0
 10
213.8025585449962
 20
40.62420924786674
 30
0.0
  0
SPLINE
  5
12C
330
121
100
AcDbEntity
  8
Cut
 62
   179
420
  1842203
370
    35
100
AcDbSpline
210
0.0
220
0.0
230
1.0
 70
    11
 71
     3
 72
    38
 73
    34
 74
     0
 42
0.0000000001
 43
0.0000000001
 12
1.0
 22
0.0
 32
0.0
 13
1.0
 23
0.0
 33
0.0
 40
0.0
 40
0.0
 40
0.0
 40
0.0
 40
1.0
 40
1.0
 40
1.0
 40
2.0
 40
2.0
 40
2.0
 40
3.0
 40
3.0
 40
3.0
 40
4.0
 40
4.0
 40
4.0
 40
5.0
 40
5.0
 40
5.0
 40
6.0
 40
6.0
 40
6.0
 40
7.0
 40
7.0
 40
7.0
 40
8.0
 40
8.0
 40
8.0
 40
9.0
 40
9.0
 40
9.0
 40
10.0
 40
10.0
 40
10.0
 40
11.0
 40
11.0
 40
11.0
 40
11.0
 10
255.6281873278791
 20
35.59606875171564
 30
0.0
 10
251.7539038655422
 20
30.15953533851315
 30
0.0
 10
245.7248842353809
 20
27.15370846078122
 30
0.0
 10
239.5208574114179
 20
26.89949530344367
 30
0.0
 10
239.0379895215681
 20
25.76034579051021
 30
0.0
 10
238.4292777681317
 20
24.65509614486076
 30
0.0
 10
237.6821459227348
 20
23.60669396132055
 30
0.0
 10
236.1199723143163
 20
21.41459596385692
 30
0.0
 10
234.1366727161645
 20
19.69678538293474
 30
0.0
 10
231.9200693158447
 20
18.48368009314121
 30
0.0
 10
232.472020838547
 20
18.15417099873
 30
0.0
 10
233.0153584726898
 20
17.80091193257352
 30
0.0
 10
233.5479004071094
 20
17.42140200359854
 30
0.0
 10
235.3718353325738
 20
16.12159560473675
 30
0.0
 10
236.9569014769671
 20
14.60961854861863
 30
0.0
 10
238.2943600967249
 20
12.94318424457444
 30
0.0
 10
238.3307487567458
 20
12.99648893471669
 30
0.0
 10
238.364961381527
 20
13.05066506604854
 30
0.0
 10
238.4025894435034
 20
13.10346611124893
 30
0.0
 10
240.6817357931896
 20
16.30164595640069
 30
0.0
 10
244.626203507813
 20
17.62196048666569
 30
0.0
 10
248.225707210562
 20
16.7324726958394
 30
0.0
 10
248.2585195031474
 20
20.15238748290888
 30
0.0
 10
249.2962486532075
 20
23.59514243082786
 30
0.0
 10
251.4272716884084
 20
26.58547033217924
 30
0.0
 10
255.8763533050157
 20
32.82858111689325
 30
0.0
 10
263.7384278683143
 20
35.22444985827668
 30
0.0
 10
270.6879455335879
 20
33.05562737873549
 30
0.0
 10
270.6879455335879
 20
33.05562737873549
 30
0.0
 10
258.6007064166183
 20
41.66946032280595
 30
0.0
 10
258.6007064166183
 20
41.66946032280595
 30
0.0
 10
257.9642850537707
 20
39.54964557730948
 30
0.0
 10
256.9823159953868
 20
37.49623063151819
 30
0.0
 10
255.6281873278791
 20
35.59606875171564
 30
0.0
  0
SPLINE
  5
12D
330
121
100
AcDbEntity
  8
Cut
 62
   179
420
  1842203
370
    35
100
AcDbSpline
210
0.0
220
0.0
230
1.0
 70
    11
 71
     3
 72
    23
 73
    19
 74
     0
 42
0.0000000001
 43
0.0000000001
 12
1.0
 22
0.0
 32
0.0
 13
1.0
 23
0.0
 33
0.0
 40
0.0
 40
0.0
 40
0.0
 40
0.0
 40
1.0
 40
1.0
 40
1.0
 40
2.0
 40
2.0
 40
2.0
 40
3.0
 40
3.0
 40
3.0
 40
4.0
 40
4.0
 40
4.0
 40
5.0
 40
5.0
 40
5.0
 40
6.0
 40
6.0
 40
6.0
 40
6.0
 10
209.7341762869823
 20
-23.5713893890423
 30
0.0
 10
209.7042430532531
 20
-25.91558957625977
 30
0.0
 10
208.988568194948
 20
-28.27361524708764
 30
0.0
 10
207.5279667478044
 20
-30.32318354738439
 30
0.0
 10
203.7115653481819
 20
-35.67849477562585
 30
0.0
 10
196.2499499641816
 20
-36.93046959403944
 30
0.0
 10
190.8946387359404
 20
-33.11406819441687
 30
0.0
 10
189.8856551495068
 20
-32.39502756216394
 30
0.0
 10
189.0226730230966
 20
-31.54635899859182
 30
0.0
 10
188.311486509269
 20
-30.60697505268243
 30
0.0
 10
188.311486509269
 20
-30.60697505268243
 30
0.0
 10
179.5319796520608
 20
-58.37544971185933
 30
0.0
 10
179.5319796520608
 20
-58.37544971185933
 30
0.0
 10
179.5319796520608
 20
-58.37544971185933
 30
0.0
 10
223.9764267598021
 20
-25.37406643655029
 30
0.0
 10
223.9764267598021
 20
-25.37406643655029
 30
0.0
 10
219.2483144554971
 20
-26.23032630025419
 30
0.0
 10
214.2671437574078
 20
-25.67120609343219
 30
0.0
 10
209.7341762869823
 20
-23.5713893890423
 30
0.0
  0
SPLINE
  5
12E
330
121
100
AcDbEntity
  8
Cut
 62
   179
420
  1842203
370
    35
100
AcDbSpline
210
0.0
220
0.0
230
1.0
 70
    11
 71
     3
 72
    20
 73
    16
 74
     0
 42
0.0000000001
 43
0.0000000001
 12
1.0
 22
0.0
 32
0.0
 13
1.0
 23
0.0
 33
0.0
 40
0.0
 40
0.0
 40
0.0
 40
0.0
 40
1.0
 40
1.0
 40
1.0
 40
2.0
 40
2.0
 40
2.0
 40
3.0
 40
3.0
 40
3.0
 40
4.0
 40
4.0
 40
4.0
 40
5.0
 40
5.0
 40
5.0
 40
5.0
 10
219.8859465803762
 20
69.25909187324022
 30
0.0
 10
219.8859465803762
 20
69.25909187324022
 30
0.0
 10
212.9397154559198
 20
47.28898083059932
 30
0.0
 10
212.9397154559198
 20
47.28898083059932
 30
0.0
 10
214.4908617572139
 20
48.49738030317465
 30
0.0
 10
216.2183194308533
 20
49.41726480631155
 30
0.0
 10
218.0397206560254
 20
50.03151258019383
 30
0.0
 10
218.4224682221675
 20
53.42179884257401
 30
0.0
 10
219.6414449998388
 20
56.7634002746849
 30
0.0
 10
221.7579267011756
 20
59.73332325518187
 30
0.0
 10
223.1120553686833
 20
61.63348513498314
 30
0.0
 10
224.732512950549
 20
63.23188852480703
 30
0.0
 10
226.5285168156991
 20
64.52534004020274
 30
0.0
 10
226.5285168156991
 20
64.52534004020274
 30
0.0
 10
219.8859465803762
 20
69.25909187324022
 30
0.0
 10
219.8859465803762
 20
69.25909187324022
 30
0.0
  0
SPLINE
  5
12F
330
121
100
AcDbEntity
  8
Cut
 62
   179
420
  1842203
370
    35
100
AcDbSpline
210
0.0
220
0.0
230
1.0
 70
    11
 71
     3
 72
    17
 73
    13
 74
     0
 42
0.0000000001
 43
0.0000000001
 12
1.0
 22
0.0
 32
0.0
 13
1.0
 23
0.0
 33
0.0
 40
0.0
 40
0.0
 40
0.0
 40
0.0
 40
1.0
 40
1.0
 40
1.0
 40
2.0
 40
2.0
 40
2.0
 40
3.0
 40
3.0
 40
3.0
 40
4.0
 40
4.0
 40
4.0
 40
4.0
 10
249.2548273506989
 20
5.369742678024976
 30
0.0
 10
250.5406589611719
 20
7.17406767955085
 30
0.0
 10
250.1187852996711
 20
9.688382629393619
 30
0.0
 10
248.3144602981446
 20
10.97421423986663
 30
0.0
 10
246.510135296618
 20
12.26004585034093
 30
0.0
 10
243.9958203467759
 20
11.83817218883881
 30
0.0
 10
242.7099887363016
 20
10.03384718731294
 30
0.0
 10
241.4241571258286
 20
8.229522185786424
 30
0.0
 10
241.8460307873294
 20
5.71520723594494
 30
0.0
 10
243.650355788856
 20
4.429375625471283
 30
0.0
 10
245.4546807903825
 20
3.143544014996984
 30
0.0
 10
247.9689957402233
 20
3.56541767649846
 30
0.0
 10
249.2548273506989
 20
5.369742678024976
 30
0.0
  0
SPLINE
  5
130
330
121
100
AcDbEntity
  8
Cut
 62
   179
420
  1842203
370
    35
100
AcDbSpline
210
0.0
220
0.0
230
1.0
 70
    11
 71
     3
 72
    14
 73
    10
 74
     0
 42
0.0000000001
 43
0.0000000001
 12
1.0
 22
0.0
 32
0.0
 13
1.0
 23
0.0
 33
0.0
 40
0.0
 40
0.0
 40
0.0
 40
0.0
 40
1.0
 40
1.0
 40
1.0
 40
2.0
 40
2.0
 40
2.0
 40
3.0
 40
3.0
 40
3.0
 40
3.0
 10
282.7296292077295
 20
18.25200401378608
 30
0.0
 10
282.7296292077295
 20
18.25200401378608
 30
0.0
 10
287.00560174195
 20
21.42703599757679
 30
0.0
 10
287.00560174195
 20
21.42703599757679
 30
0.0
 10
287.00560174195
 20
21.42703599757679
 30
0.0
 10
279.4436175727774
 20
26.81599767266292
 30
0.0
 10
279.4436175727774
 20
26.81599767266292
 30
0.0
 10
281.3091592691936
 20
24.28394565903307
 30
0.0
 10
282.4234111516085
 20
21.31409543060514
 30
0.0
 10
282.7296292077295
 20
18.25200401378608
 30
0.0
  0
SPLINE
  5
131
330
121
100
AcDbEntity
  8
Cut
 62
   179
420
  1842203
370
    35
100
AcDbSpline
210
0.0
220
0.0
230
1.0
 70
    11
 71
     3
 72
    20
 73
    16
 74
     0
 42
0.0000000001
 43
0.0000000001
 12
1.0
 22
0.0
 32
0.0
 13
1.0
 23
0.0
 33
0.0
 40
0.0
 40
0.0
 40
0.0
 40
0.0
 40
1.0
 40
1.0
 40
1.0
 40
2.0
 40
2.0
 40
2.0
 40
3.0
 40
3.0
 40
3.0
 40
4.0
 40
4.0
 40
4.0
 40
5.0
 40
5.0
 40
5.0
 40
5.0
 10
272.4947132049834
 20
26.32799726940816
 30
0.0
 10
267.0986981346218
 20
30.17340579735962
 30
0.0
 10
259.5800795091594
 20
28.91186647860671
 30
0.0
 10
255.7346709812079
 20
23.51585140824453
 30
0.0
 10
251.8892624532565
 20
18.11983633788171
 30
0.0
 10
253.15080177201
 20
10.6012177124199
 30
0.0
 10
258.5468168423716
 20
6.755809184468449
 30
0.0
 10
260.3147309851267
 20
5.495925356758155
 30
0.0
 10
262.3106953467045
 20
4.787732888637808
 30
0.0
 10
264.3304709768165
 20
4.590056745253035
 30
0.0
 10
264.3304709768165
 20
4.590056745253035
 30
0.0
 10
277.3082892320131
 20
14.22647824182777
 30
0.0
 10
277.3082892320131
 20
14.22647824182777
 30
0.0
 10
278.1823314790182
 20
18.71194868986146
 30
0.0
 10
276.4522608547597
 20
23.50769612425193
 30
0.0
 10
272.4947132049834
 20
26.32799726940816
 30
0.0
  0
SPLINE
  5
132
330
121
100
AcDbEntity
  8
Cut
 62
   179
420
  1842203
370
    35
100
AcDbSpline
210
0.0
220
0.0
230
1.0
 70
    11
 71
     3
 72
    23
 73
    19
 74
     0
 42
0.0000000001
 43
0.0000000001
 12
1.0
 22
0.0
 32
0.0
 13
1.0
 23
0.0
 33
0.0
 40
0.0
 40
0.0
 40
0.0
 40
0.0
 40
1.0
 40
1.0
 40
1.0
 40
2.0
 40
2.0
 40
2.0
 40
3.0
 40
3.0
 40
3.0
 40
4.0
 40
4.0
 40
4.0
 40
5.0
 40
5.0
 40
5.0
 40
6.0
 40
6.0
 40
6.0
 40
6.0
 10
255.4771979184369
 20
2.448409891668909
 30
0.0
 10
255.0468130877804
 20
2.755118727083073
 30
0.0
 10
254.6378068582602
 20
3.080556620447493
 30
0.0
 10
254.2442170937928
 20
3.418263684176656
 30
0.0
 10
254.0454029307674
 20
3.035438042725453
 30
0.0
 10
253.819617695297
 20
2.661304103171783
 30
0.0
 10
253.5622266434984
 20
2.300123754088986
 30
0.0
 10
251.2363214072592
 20
-0.9636698365647819
 30
0.0
 10
247.1756238683532
 20
-2.274497362413656
 30
0.0
 10
243.5175761755434
 20
-1.273941809722893
 30
0.0
 10
243.635882208305
 20
-5.183467616914208
 30
0.0
 10
242.7935356426119
 20
-9.143881681417755
 30
0.0
 10
240.935760668206
 20
-12.7812409273836
 30
0.0
 10
240.935760668206
 20
-12.7812409273836
 30
0.0
 10
258.8984646925714
 20
0.5566285041724927
 30
0.0
 10
258.8984646925714
 20
0.5566285041724927
 30
0.0
 10
257.7138869757798
 20
1.04743598654151
 30
0.0
 10
256.5649126994952
 20
1.673262372524041
 30
0.0
 10
255.4771979184369
 20
2.448409891668909
 30
0.0
  0
ENDBLK
  5
124
330
121
100
AcDbEntity
  8
0
100
AcDbBlockEnd
  0
BLOCK
  5
135
330
133
100
AcDbEntity
  8
0
100
AcDbBlockBegin
  2
block 12
 70
     0
 10
0.0
 20
0.0
 30
0.0
  3
block 12
  1

  0
SPLINE
  5
137
330
133
100
AcDbEntity
  8
Cut
 62
   179
420
  1842203
370
    35
100
AcDbSpline
210
0.0
220
0.0
230
1.0
 70
    11
 71
     3
 72
    23
 73
    19
 74
     0
 42
0.0000000001
 43
0.0000000001
 12
1.0
 22
0.0
 32
0.0
 13
1.0
 23
0.0
 33
0.0
 40
0.0
 40
0.0
 40
0.0
 40
0.0
 40
1.0
 40
1.0
 40
1.0
 40
2.0
 40
2.0
 40
2.0
 40
3.0
 40
3.0
 40
3.0
 40
4.0
 40
4.0
 40
4.0
 40
5.0
 40
5.0
 40
5.0
 40
6.0
 40
6.0
 40
6.0
 40
6.0
 10
141.2657145119628
 20
42.42432150983916
 30
0.0
 10
141.3038480953322
 20
36.73011128859876
 30
0.0
 10
145.3184524697043
 20
31.97835432048094
 30
0.0
 10
150.6518326212771
 20
30.78181764242695
 30
0.0
 10
152.6285603615784
 20
37.90828489139389
 30
0.0
 10
157.847076262066
 20
43.70798738120063
 30
0.0
 10
164.6213894442271
 20
46.47519773895383
 30
0.0
 10
164.4744296886025
 20
46.89363706502383
 30
0.0
 10
164.3065150722787
 20
47.30210861657913
 30
0.0
 10
164.1160037197434
 20
47.69796556109569
 30
0.0
 10
161.7140519951065
 20
46.86044245707487
 30
0.0
 10
159.1374854623538
 20
46.39688490533754
 30
0.0
 10
156.4554951207388
 20
46.37892387153062
 30
0.0
 10
151.8311426977412
 20
46.34795502391181
 30
0.0
 10
147.50260709994
 20
47.64580204231881
 30
0.0
 10
143.8303198546417
 20
49.91210942658954
 30
0.0
 10
142.2095959818698
 20
47.84839411479312
 30
0.0
 10
141.2468172040813
 20
45.24611883869981
 30
0.0
 10
141.2657145119628
 20
42.42432150983916
 30
0.0
  0
SPLINE
  5
138
330
133
100
AcDbEntity
  8
Cut
 62
   179
420
  1842203
370
    35
100
AcDbSpline
210
0.0
220
0.0
230
1.0
 70
    11
 71
     3
 72
    20
 73
    16
 74
     0
 42
0.0000000001
 43
0.0000000001
 12
1.0
 22
0.0
 32
0.0
 13
1.0
 23
0.0
 33
0.0
 40
0.0
 40
0.0
 40
0.0
 40
0.0
 40
1.0
 40
1.0
 40
1.0
 40
2.0
 40
2.0
 40
2.0
 40
3.0
 40
3.0
 40
3.0
 40
4.0
 40
4.0
 40
4.0
 40
5.0
 40
5.0
 40
5.0
 40
5.0
 10
149.7910121140643
 20
24.26693458892298
 30
0.0
 10
149.7881311618007
 20
24.69712620416292
 30
0.0
 10
149.7974390304556
 20
25.12456836254646
 30
0.0
 10
149.8172428909129
 20
25.54936362154987
 30
0.0
 10
146.0167676522991
 20
26.32514157911407
 30
0.0
 10
142.665108330602
 20
28.35342586590017
 30
0.0
 10
140.2106525366405
 20
31.18195165982688
 30
0.0
 10
140.2106525366405
 20
31.18195165982688
 30
0.0
 10
147.3469779742811
 20
9.620727850988631
 30
0.0
 10
147.3469779742811
 20
9.620727850988631
 30
0.0
 10
149.3165734183956
 20
10.55265368833222
 30
0.0
 10
151.4896888667899
 20
11.12390538094828
 30
0.0
 10
153.7811911433106
 20
11.24782506064935
 30
0.0
 10
151.2904171929248
 20
14.9804763407021
 30
0.0
 10
149.8232447627988
 20
19.45386795144166
 30
0.0
 10
149.7910121140643
 20
24.26693458892298
 30
0.0
  0
SPLINE
  5
139
330
133
100
AcDbEntity
  8
Cut
 62
   179
420
  1842203
370
    35
100
AcDbSpline
210
0.0
220
0.0
230
1.0
 70
    11
 71
     3
 72
    32
 73
    28
 74
     0
 42
0.0000000001
 43
0.0000000001
 12
1.0
 22
0.0
 32
0.0
 13
1.0
 23
0.0
 33
0.0
 40
0.0
 40
0.0
 40
0.0
 40
0.0
 40
1.0
 40
1.0
 40
1.0
 40
2.0
 40
2.0
 40
2.0
 40
3.0
 40
3.0
 40
3.0
 40
4.0
 40
4.0
 40
4.0
 40
5.0
 40
5.0
 40
5.0
 40
6.0
 40
6.0
 40
6.0
 40
7.0
 40
7.0
 40
7.0
 40
8.0
 40
8.0
 40
8.0
 40
9.0
 40
9.0
 40
9.0
 40
9.0
 10
179.9902054348568
 20
72.48151688838695
 30
0.0
 10
180.057953869483
 20
71.77729094961781
 30
0.0
 10
180.0967968513965
 20
71.06467105187986
 30
0.0
 10
180.1016237893425
 20
70.34389957021355
 30
0.0
 10
180.1589836240851
 20
61.77877328457137
 30
0.0
 10
175.6619292599297
 20
54.2263197065406
 30
0.0
 10
168.8833549447405
 20
49.98652651862707
 30
0.0
 10
169.2048098945916
 20
49.31888379252037
 30
0.0
 10
169.483990796044
 20
48.62739813375698
 30
0.0
 10
169.7188236748545
 20
47.91563518491454
 30
0.0
 10
170.9301046791778
 20
48.11486147449827
 30
0.0
 10
172.1717354248169
 20
48.22343598847756
 30
0.0
 10
173.4371407826666
 20
48.23191028760526
 30
0.0
 10
184.0012320251265
 20
48.30265700022427
 30
0.0
 10
193.0247503197009
 20
41.44539740999843
 30
0.0
 10
196.1916457086826
 20
31.92357406916432
 30
0.0
 10
196.1916457086826
 20
31.92357406916432
 30
0.0
 10
200.5978887549338
 20
45.85927037116779
 30
0.0
 10
200.5978887549338
 20
45.85927037116779
 30
0.0
 10
192.5305599557018
 20
47.27931169823328
 30
0.0
 10
186.355409975646
 20
54.30593806285329
 30
0.0
 10
186.2986416726088
 20
62.78273522784364
 30
0.0
 10
186.2744668864239
 20
66.39257994809562
 30
0.0
 10
187.364473502351
 20
69.75411241844715
 30
0.0
 10
189.2438563211312
 20
72.54348770678529
 30
0.0
 10
189.2438563211312
 20
72.54348770678529
 30
0.0
 10
179.9902054348568
 20
72.48151688838695
 30
0.0
 10
179.9902054348568
 20
72.48151688838695
 30
0.0
  0
SPLINE
  5
13A
330
133
100
AcDbEntity
  8
Cut
 62
   179
420
  1842203
370
    35
100
AcDbSpline
210
0.0
220
0.0
230
1.0
 70
    11
 71
     3
 72
    26
 73
    22
 74
     0
 42
0.0000000001
 43
0.0000000001
 12
1.0
 22
0.0
 32
0.0
 13
1.0
 23
0.0
 33
0.0
 40
0.0
 40
0.0
 40
0.0
 40
0.0
 40
1.0
 40
1.0
 40
1.0
 40
2.0
 40
2.0
 40
2.0
 40
3.0
 40
3.0
 40
3.0
 40
4.0
 40
4.0
 40
4.0
 40
5.0
 40
5.0
 40
5.0
 40
6.0
 40
6.0
 40
6.0
 40
7.0
 40
7.0
 40
7.0
 40
7.0
 10
143.5272950911509
 20
56.79282008450318
 30
0.0
 10
146.275290388406
 20
58.67498772381841
 30
0.0
 10
149.5922552607976
 20
59.78653399659145
 30
0.0
 10
153.1663550781077
 20
59.81046940256649
 30
0.0
 10
158.1707716489065
 20
59.84398350357451
 30
0.0
 10
162.697729693297
 20
57.7367176227932
 30
0.0
 10
165.8831495835031
 20
54.35071004123377
 30
0.0
 10
171.2684387679411
 20
57.62371286139925
 30
0.0
 10
174.857668309587
 20
63.56151032151164
 30
0.0
 10
174.8124845050789
 20
70.30847870831839
 30
0.0
 10
174.8076390443131
 20
71.03201606777321
 30
0.0
 10
174.7566604831964
 20
71.74429436510908
 30
0.0
 10
174.6708041936187
 20
72.44589336504919
 30
0.0
 10
174.6708041936187
 20
72.44589336504919
 30
0.0
 10
137.8924391513497
 20
72.19959215820411
 30
0.0
 10
137.8924391513497
 20
72.19959215820411
 30
0.0
 10
137.8159872243813
 20
71.4969061956006
 30
0.0
 10
137.7745529276436
 20
70.78400901815994
 30
0.0
 10
137.7793983884094
 20
70.06047165870511
 30
0.0
 10
137.8143472452668
 20
64.84181344842652
 30
0.0
 10
140.0194016876166
 20
60.13849726636344
 30
0.0
 10
143.5272950911509
 20
56.79282008450318
 30
0.0
  0
SPLINE
  5
13B
330
133
100
AcDbEntity
  8
Cut
 62
   179
420
  1842203
370
    35
100
AcDbSpline
210
0.0
220
0.0
230
1.0
 70
    11
 71
     3
 72
    17
 73
    13
 74
     0
 42
0.0000000001
 43
0.0000000001
 12
1.0
 22
0.0
 32
0.0
 13
1.0
 23
0.0
 33
0.0
 40
0.0
 40
0.0
 40
0.0
 40
0.0
 40
1.0
 40
1.0
 40
1.0
 40
2.0
 40
2.0
 40
2.0
 40
3.0
 40
3.0
 40
3.0
 40
4.0
 40
4.0
 40
4.0
 40
4.0
 10
191.5877809568711
 20
62.81815608973847
 30
0.0
 10
191.6288152138594
 20
56.69080940690728
 30
0.0
 10
196.2738600576456
 20
51.65425978814999
 30
0.0
 10
202.2124570645896
 20
50.96559528838846
 30
0.0
 10
202.2124570645896
 20
50.96559528838846
 30
0.0
 10
209.0770222859998
 20
72.67630852976315
 30
0.0
 10
209.0770222859998
 20
72.67630852976315
 30
0.0
 10
209.0770222859998
 20
72.67630852976315
 30
0.0
 10
196.5148283897966
 20
72.5921807140297
 30
0.0
 10
196.5148283897966
 20
72.5921807140297
 30
0.0
 10
193.5083724979747
 20
70.38719818766386
 30
0.0
 10
191.5609613299004
 20
66.82293561836912
 30
0.0
 10
191.5877809568711
 20
62.81815608973847
 30
0.0
  0
SPLINE
  5
13C
330
133
100
AcDbEntity
  8
Cut
 62
   179
420
  1842203
370
    35
100
AcDbSpline
210
0.0
220
0.0
230
1.0
 70
    11
 71
     3
 72
    11
 73
     7
 74
     0
 42
0.0000000001
 43
0.0000000001
 12
1.0
 22
0.0
 32
0.0
 13
1.0
 23
0.0
 33
0.0
 40
0.0
 40
0.0
 40
0.0
 40
0.0
 40
1.0
 40
1.0
 40
1.0
 40
2.0
 40
2.0
 40
2.0
 40
2.0
 10
165.1917588002
 20
40.9182473621288
 30
0.0
 10
161.0804698510493
 20
38.8144558518982
 30
0.0
 10
157.8578309458446
 20
35.22152647294924
 30
0.0
 10
156.2357191644404
 20
30.85774117711508
 30
0.0
 10
160.9433970607357
 20
32.05191624170298
 30
0.0
 10
164.543545163112
 20
36.02890304021429
 30
0.0
 10
165.1917588002
 20
40.9182473621288
 30
0.0
  0
SPLINE
  5
13D
330
133
100
AcDbEntity
  8
Cut
 62
   179
420
  1842203
370
    35
100
AcDbSpline
210
0.0
220
0.0
230
1.0
 70
    11
 71
     3
 72
    17
 73
    13
 74
     0
 42
0.0000000001
 43
0.0000000001
 12
1.0
 22
0.0
 32
0.0
 13
1.0
 23
0.0
 33
0.0
 40
0.0
 40
0.0
 40
0.0
 40
0.0
 40
1.0
 40
1.0
 40
1.0
 40
2.0
 40
2.0
 40
2.0
 40
3.0
 40
3.0
 40
3.0
 40
4.0
 40
4.0
 40
4.0
 40
4.0
 10
160.4497916160606
 20
52.1426702386817
 30
0.0
 10
158.4259727647292
 20
53.65149178460128
 30
0.0
 10
155.9148091923192
 20
54.53949904352602
 30
0.0
 10
153.2017759400015
 20
54.52133011830355
 30
0.0
 10
151.4742412133952
 20
54.50976098282017
 30
0.0
 10
149.8346289639167
 20
54.12947059922077
 30
0.0
 10
148.3530842259191
 20
53.46026416294296
 30
0.0
 10
150.7977063437657
 20
52.29449519252879
 30
0.0
 10
153.5348407094228
 20
51.64874102158693
 30
0.0
 10
156.4200742588436
 20
51.66806315579357
 30
0.0
 10
157.8052909345191
 20
51.67733981990249
 30
0.0
 10
159.1525508741257
 20
51.84415456066664
 30
0.0
 10
160.4497916160606
 20
52.1426702386817
 30
0.0
  0
SPLINE
  5
13E
330
133
100
AcDbEntity
  8
Cut
 62
   179
420
  1842203
370
    35
100
AcDbSpline
210
0.0
220
0.0
230
1.0
 70
    11
 71
     3
 72
    20
 73
    16
 74
     0
 42
0.0000000001
 43
0.0000000001
 12
1.0
 22
0.0
 32
0.0
 13
1.0
 23
0.0
 33
0.0
 40
0.0
 40
0.0
 40
0.0
 40
0.0
 40
1.0
 40
1.0
 40
1.0
 40
2.0
 40
2.0
 40
2.0
 40
3.0
 40
3.0
 40
3.0
 40
4.0
 40
4.0
 40
4.0
 40
5.0
 40
5.0
 40
5.0
 40
5.0
 10
126.6594610405499
 20
72.1243659739521
 30
0.0
 10
126.6594610405499
 20
72.1243659739521
 30
0.0
 10
136.027314421363
 20
43.82123213388963
 30
0.0
 10
136.027314421363
 20
43.82123213388963
 30
0.0
 10
136.2930519056016
 20
47.32862620568137
 30
0.0
 10
137.6111427646172
 20
50.54879773387989
 30
0.0
 10
139.6657660674551
 20
53.16718738280856
 30
0.0
 10
135.2786140815343
 20
57.45485254084973
 30
0.0
 10
132.5344876759297
 20
63.4207203545138
 30
0.0
 10
132.4902591041464
 20
70.02505079680996
 30
0.0
 10
132.4854321662005
 20
70.7458222784769
 30
0.0
 10
132.5146948573476
 20
71.45889827341848
 30
0.0
 10
132.5730379101133
 20
72.16396863486635
 30
0.0
 10
132.5730379101133
 20
72.16396863486635
 30
0.0
 10
126.6594610405499
 20
72.1243659739521
 30
0.0
 10
126.6594610405499
 20
72.1243659739521
 30
0.0
  0
SPLINE
  5
13F
330
133
100
AcDbEntity
  8
Cut
 62
   179
420
  1842203
370
    35
100
AcDbSpline
210
0.0
220
0.0
230
1.0
 70
    11
 71
     3
 72
    35
 73
    31
 74
     0
 42
0.0000000001
 43
0.0000000001
 12
1.0
 22
0.0
 32
0.0
 13
1.0
 23
0.0
 33
0.0
 40
0.0
 40
0.0
 40
0.0
 40
0.0
 40
1.0
 40
1.0
 40
1.0
 40
2.0
 40
2.0
 40
2.0
 40
3.0
 40
3.0
 40
3.0
 40
4.0
 40
4.0
 40
4.0
 40
5.0
 40
5.0
 40
5.0
 40
6.0
 40
6.0
 40
6.0
 40
7.0
 40
7.0
 40
7.0
 40
8.0
 40
8.0
 40
8.0
 40
9.0
 40
9.0
 40
9.0
 40
10.0
 40
10.0
 40
10.0
 40
10.0
 10
163.4055564031364
 20
-29.62435337068595
 30
0.0
 10
163.3628798257563
 20
-23.25177094728019
 30
0.0
 10
168.5123926902837
 20
-18.03282147830113
 30
0.0
 10
174.88471479578
 20
-17.99014664424599
 30
0.0
 10
176.7323211581215
 20
-17.97777340045772
 30
0.0
 10
178.4815983042111
 20
-18.40425843088395
 30
0.0
 10
180.0372368550306
 20
-19.16812573390511
 30
0.0
 10
180.0372368550306
 20
-19.16812573390511
 30
0.0
 10
187.7797816671408
 20
5.319317725149518
 30
0.0
 10
187.7797816671408
 20
5.319317725149518
 30
0.0
 10
183.8576164649938
 20
2.400041228999735
 30
0.0
 10
179.0090079870722
 20
0.6559848959773624
 30
0.0
 10
173.7559878127459
 20
0.6208059203199696
 30
0.0
 10
172.6946391561686
 20
0.6136981694807998
 30
0.0
 10
171.6491508283844
 20
0.6775713630863878
 30
0.0
 10
170.6233082645331
 20
0.8059751534238934
 30
0.0
 10
171.514246423647
 20
-1.258069008396939
 30
0.0
 10
172.0148423330249
 20
-3.529476473151036
 30
0.0
 10
172.0308205534243
 20
-5.915387732502745
 30
0.0
 10
172.0871599986993
 20
-14.3281466917672
 30
0.0
 10
166.0991346811061
 20
-21.39493390226604
 30
0.0
 10
158.1421369721356
 20
-22.99487175956514
 30
0.0
 10
158.1421369721356
 20
-22.99487175956514
 30
0.0
 10
168.7211458320479
 20
-54.95762930858562
 30
0.0
 10
168.7211458320479
 20
-54.95762930858562
 30
0.0
 10
168.7211458320479
 20
-54.95762930858562
 30
0.0
 10
173.1473699547754
 20
-40.95888078880337
 30
0.0
 10
173.1473699547754
 20
-40.95888078880337
 30
0.0
 10
167.6657466811124
 20
-40.09008305034568
 30
0.0
 10
163.4439172724022
 20
-35.35250253937136
 30
0.0
 10
163.4055564031364
 20
-29.62435337068595
 30
0.0
  0
SPLINE
  5
140
330
133
100
AcDbEntity
  8
Cut
 62
   179
420
  1842203
370
    35
100
AcDbSpline
210
0.0
220
0.0
230
1.0
 70
    11
 71
     3
 72
    17
 73
    13
 74
     0
 42
0.0000000001
 43
0.0000000001
 12
1.0
 22
0.0
 32
0.0
 13
1.0
 23
0.0
 33
0.0
 40
0.0
 40
0.0
 40
0.0
 40
0.0
 40
1.0
 40
1.0
 40
1.0
 40
2.0
 40
2.0
 40
2.0
 40
3.0
 40
3.0
 40
3.0
 40
4.0
 40
4.0
 40
4.0
 40
4.0
 10
174.9201356576739
 20
-23.27928592850894
 30
0.0
 10
171.4644154096883
 20
-23.30242855778584
 30
0.0
 10
168.6715513147968
 20
-26.13295194289514
 30
0.0
 10
168.6946956873987
 20
-29.58893250879079
 30
0.0
 10
168.7173245808136
 20
-32.96794032283538
 30
0.0
 10
171.4244796240529
 20
-35.71151715877527
 30
0.0
 10
174.7752886889175
 20
-35.81009782521155
 30
0.0
 10
174.7752886889175
 20
-35.81009782521155
 30
0.0
 10
178.4096994453
 20
-24.31553941348561
 30
0.0
 10
178.4096994453
 20
-24.31553941348561
 30
0.0
 10
177.4085288674267
 20
-23.65348999652138
 30
0.0
 10
176.2078632762598
 20
-23.27066213932767
 30
0.0
 10
174.9201356576739
 20
-23.27928592850894
 30
0.0
  0
SPLINE
  5
141
330
133
100
AcDbEntity
  8
Cut
 62
   179
420
  1842203
370
    35
100
AcDbSpline
210
0.0
220
0.0
230
1.0
 70
    11
 71
     3
 72
    17
 73
    13
 74
     0
 42
0.0000000001
 43
0.0000000001
 12
1.0
 22
0.0
 32
0.0
 13
1.0
 23
0.0
 33
0.0
 40
0.0
 40
0.0
 40
0.0
 40
0.0
 40
1.0
 40
1.0
 40
1.0
 40
2.0
 40
2.0
 40
2.0
 40
3.0
 40
3.0
 40
3.0
 40
4.0
 40
4.0
 40
4.0
 40
4.0
 10
166.741681269162
 20
-5.950808594397903
 30
0.0
 10
166.6973084372981
 20
0.6750631549050933
 30
0.0
 10
161.270544410001
 20
6.029625665506077
 30
0.0
 10
154.6446726606979
 20
5.985252833642151
 30
0.0
 10
152.6125009005546
 20
5.971643572967963
 30
0.0
 10
150.7010756369845
 20
5.449898602714003
 30
0.0
 10
149.0271678424007
 20
4.544391397118562
 30
0.0
 10
149.0271678424007
 20
4.544391397118562
 30
0.0
 10
156.4623452079244
 20
-17.91967158156221
 30
0.0
 10
156.4623452079244
 20
-17.91967158156221
 30
0.0
 10
162.3008609400142
 20
-17.07029576670956
 30
0.0
 10
166.7822866683868
 20
-12.01411707150353
 30
0.0
 10
166.741681269162
 20
-5.950808594397903
 30
0.0
  0
SPLINE
  5
142
330
133
100
AcDbEntity
  8
Cut
 62
   179
420
  1842203
370
    35
100
AcDbSpline
210
0.0
220
0.0
230
1.0
 70
    11
 71
     3
 72
    38
 73
    34
 74
     0
 42
0.0000000001
 43
0.0000000001
 12
1.0
 22
0.0
 32
0.0
 13
1.0
 23
0.0
 33
0.0
 40
0.0
 40
0.0
 40
0.0
 40
0.0
 40
1.0
 40
1.0
 40
1.0
 40
2.0
 40
2.0
 40
2.0
 40
3.0
 40
3.0
 40
3.0
 40
4.0
 40
4.0
 40
4.0
 40
5.0
 40
5.0
 40
5.0
 40
6.0
 40
6.0
 40
6.0
 40
7.0
 40
7.0
 40
7.0
 40
8.0
 40
8.0
 40
8.0
 40
9.0
 40
9.0
 40
9.0
 40
10.0
 40
10.0
 40
10.0
 40
11.0
 40
11.0
 40
11.0
 40
11.0
 10
181.6162095288195
 20
7.740498407907098
 30
0.0
 10
177.6650928897066
 20
8.794471013556752
 30
0.0
 10
174.7333363614172
 20
12.38871633845148
 30
0.0
 10
174.7046582418498
 20
16.67101102842763
 30
0.0
 10
174.6702886044702
 20
21.80317861328984
 30
0.0
 10
178.8175663767098
 20
26.00637874047881
 30
0.0
 10
183.9497339615726
 20
26.04074837785772
 30
0.0
 10
187.2964460849759
 20
26.0631609901099
 30
0.0
 10
190.2471352903408
 20
24.30661136773508
 30
0.0
 10
191.9053652711216
 20
21.65903541358086
 30
0.0
 10
192.0473403146605
 20
22.60203761961354
 30
0.0
 10
192.1195603162874
 20
23.56735152140569
 30
0.0
 10
192.112977197086
 20
24.5503607571071
 30
0.0
 10
192.0446022770946
 20
34.76028948375689
 30
0.0
 10
183.6824903712122
 20
43.0111459233344
 30
0.0
 10
173.4725616445618
 20
42.94277100334295
 30
0.0
 10
172.4899591555937
 20
42.9361906080859
 30
0.0
 10
171.5261050773332
 20
42.85116504647925
 30
0.0
 10
170.5854622887731
 20
42.69670557665679
 30
0.0
 10
170.5857629666298
 20
42.67124410280056
 30
0.0
 10
170.587753095912
 20
42.64618443741588
 30
0.0
 10
170.5879238327305
 20
42.62068955215865
 30
0.0
 10
170.6479797184091
 20
33.65298161954934
 30
0.0
 10
163.8409238335209
 20
26.21221291275141
 30
0.0
 10
155.1007720771447
 20
25.2951790623841
 30
0.0
 10
155.0855327046826
 20
24.96626447015128
 30
0.0
 10
155.0779208149634
 20
24.6354322159629
 30
0.0
 10
155.0801513983266
 20
24.30235545081749
 30
0.0
 10
155.148526318318
 20
14.09242672416834
 30
0.0
 10
163.5106382242016
 20
5.841570284591477
 30
0.0
 10
173.7205669508508
 20
5.909945204582273
 30
0.0
 10
176.5481400833278
 20
5.928881192470517
 30
0.0
 10
179.2242213978458
 20
6.586237195594186
 30
0.0
 10
181.6162095288195
 20
7.740498407907098
 30
0.0
  0
SPLINE
  5
143
330
133
100
AcDbEntity
  8
Cut
 62
   179
420
  1842203
370
    35
100
AcDbSpline
210
0.0
220
0.0
230
1.0
 70
    11
 71
     3
 72
    17
 73
    13
 74
     0
 42
0.0000000001
 43
0.0000000001
 12
1.0
 22
0.0
 32
0.0
 13
1.0
 23
0.0
 33
0.0
 40
0.0
 40
0.0
 40
0.0
 40
0.0
 40
1.0
 40
1.0
 40
1.0
 40
2.0
 40
2.0
 40
2.0
 40
3.0
 40
3.0
 40
3.0
 40
4.0
 40
4.0
 40
4.0
 40
4.0
 10
188.0303320267398
 20
16.7602517962397
 30
0.0
 10
188.0154945941397
 20
18.97581752359309
 30
0.0
 10
186.2007205508212
 20
20.76644652619609
 30
0.0
 10
183.9851548234678
 20
20.75160909359541
 30
0.0
 10
181.7695890961144
 20
20.73677166099409
 30
0.0
 10
179.9789600935108
 20
18.92199761767554
 30
0.0
 10
179.9937975261121
 20
16.70643189032279
 30
0.0
 10
180.0086367020377
 20
14.49060584505996
 30
0.0
 10
181.8234107453563
 20
12.69997684245696
 30
0.0
 10
184.0389764727084
 20
12.71481427505764
 30
0.0
 10
186.2545422000618
 20
12.72965170765896
 30
0.0
 10
188.0451712026654
 20
14.54442575097752
 30
0.0
 10
188.0303320267398
 20
16.7602517962397
 30
0.0
  0
ENDBLK
  5
136
330
133
100
AcDbEntity
  8
0
100
AcDbBlockEnd
  0
BLOCK
  5
146
330
144
100
AcDbEntity
  8
0
100
AcDbBlockBegin
  2
block 13
 70
     0
 10
0.0
 20
0.0
 30
0.0
  3
block 13
  1

  0
SPLINE
  5
148
330
144
100
AcDbEntity
  8
Cut
 62
   179
420
  1842203
370
    35
100
AcDbSpline
210
0.0
220
0.0
230
1.0
 70
    11
 71
     3
 72
    17
 73
    13
 74
     0
 42
0.0000000001
 43
0.0000000001
 12
1.0
 22
0.0
 32
0.0
 13
1.0
 23
0.0
 33
0.0
 40
0.0
 40
0.0
 40
0.0
 40
0.0
 40
1.0
 40
1.0
 40
1.0
 40
2.0
 40
2.0
 40
2.0
 40
3.0
 40
3.0
 40
3.0
 40
4.0
 40
4.0
 40
4.0
 40
4.0
 10
111.4996318046733
 20
7.674835196174113
 30
0.0
 10
110.6616021344903
 20
7.319535742955869
 30
0.0
 10
109.8504520110536
 20
6.866249206499326
 30
0.0
 10
109.0852039648286
 20
6.305316691048683
 30
0.0
 10
106.3846588842153
 20
4.325797040356298
 30
0.0
 10
104.7542826678461
 20
1.422196951394969
 30
0.0
 10
104.3056807167713
 20
-1.655380815152957
 30
0.0
 10
104.5253832280331
 20
-1.508276865621011
 30
0.0
 10
104.7443068695035
 20
-1.358899423305079
 30
0.0
 10
104.9595673289025
 20
-1.201111903868147
 30
0.0
 10
108.1101595148264
 20
1.108295625791878
 30
0.0
 10
110.3133565781983
 20
4.234726609161853
 30
0.0
 10
111.4996318046733
 20
7.674835196174113
 30
0.0
  0
SPLINE
  5
149
330
144
100
AcDbEntity
  8
Cut
 62
   179
420
  1842203
370
    35
100
AcDbSpline
210
0.0
220
0.0
230
1.0
 70
    11
 71
     3
 72
    20
 73
    16
 74
     0
 42
0.0000000001
 43
0.0000000001
 12
1.0
 22
0.0
 32
0.0
 13
1.0
 23
0.0
 33
0.0
 40
0.0
 40
0.0
 40
0.0
 40
0.0
 40
1.0
 40
1.0
 40
1.0
 40
2.0
 40
2.0
 40
2.0
 40
3.0
 40
3.0
 40
3.0
 40
4.0
 40
4.0
 40
4.0
 40
5.0
 40
5.0
 40
5.0
 40
5.0
 10
113.8882208008181
 20
-20.52609125903148
 30
0.0
 10
109.3850977594457
 20
-19.92063106481558
 30
0.0
 10
105.1235505945166
 20
-17.56315818187835
 30
0.0
 10
102.231587387757
 20
-13.61781871096291
 30
0.0
 10
101.2425778322548
 20
-12.268569720756
 30
0.0
 10
100.4832581538595
 20
-10.82117897662066
 30
0.0
 10
99.93683381082262
 20
-9.323078407323477
 30
0.0
 10
96.82119141297022
 20
-10.11950323010368
 30
0.0
 10
93.59802006133565
 20
-10.26526732816913
 30
0.0
 10
90.46826642783793
 20
-9.793866810223017
 30
0.0
 10
90.46826642783793
 20
-9.793866810223017
 30
0.0
 10
114.4891570804812
 20
-27.13644941723007
 30
0.0
 10
114.4891570804812
 20
-27.13644941723007
 30
0.0
 10
113.9790490898793
 20
-24.95759505177203
 30
0.0
 10
113.7793761636596
 20
-22.73185994943113
 30
0.0
 10
113.8882208008181
 20
-20.52609125903148
 30
0.0
  0
SPLINE
  5
14A
330
144
100
AcDbEntity
  8
Cut
 62
   179
420
  1842203
370
    35
100
AcDbSpline
210
0.0
220
0.0
230
1.0
 70
    11
 71
     3
 72
    17
 73
    13
 74
     0
 42
0.0000000001
 43
0.0000000001
 12
1.0
 22
0.0
 32
0.0
 13
1.0
 23
0.0
 33
0.0
 40
0.0
 40
0.0
 40
0.0
 40
0.0
 40
1.0
 40
1.0
 40
1.0
 40
2.0
 40
2.0
 40
2.0
 40
3.0
 40
3.0
 40
3.0
 40
4.0
 40
4.0
 40
4.0
 40
4.0
 10
120.556067243926
 20
-14.5811965247658
 30
0.0
 10
121.5092799615315
 20
-14.20965219105052
 30
0.0
 10
122.4303474521428
 20
-13.71136061937205
 30
0.0
 10
123.293698838679
 20
-13.07851762505547
 30
0.0
 10
125.7561504192109
 20
-11.27352228262188
 30
0.0
 10
127.327892488317
 20
-8.699884287352006
 30
0.0
 10
127.9264388862651
 20
-5.926933599617037
 30
0.0
 10
127.5138365974986
 20
-6.182189217959035
 30
0.0
 10
127.1059987491779
 20
-6.449889232004142
 30
0.0
 10
126.7081789438177
 20
-6.7414941112556
 30
0.0
 10
123.8766719402109
 20
-8.817009826565046
 30
0.0
 10
121.8073300290783
 20
-11.55152264445942
 30
0.0
 10
120.556067243926
 20
-14.5811965247658
 30
0.0
  0
SPLINE
  5
14B
330
144
100
AcDbEntity
  8
Cut
 62
   179
420
  1842203
370
    35
100
AcDbSpline
210
0.0
220
0.0
230
1.0
 70
    11
 71
     3
 72
    23
 73
    19
 74
     0
 42
0.0000000001
 43
0.0000000001
 12
1.0
 22
0.0
 32
0.0
 13
1.0
 23
0.0
 33
0.0
 40
0.0
 40
0.0
 40
0.0
 40
0.0
 40
1.0
 40
1.0
 40
1.0
 40
2.0
 40
2.0
 40
2.0
 40
3.0
 40
3.0
 40
3.0
 40
4.0
 40
4.0
 40
4.0
 40
5.0
 40
5.0
 40
5.0
 40
6.0
 40
6.0
 40
6.0
 40
6.0
 10
98.90536971577617
 20
-4.121421280769503
 30
0.0
 10
98.67693831920813
 20
1.449704000119868
 30
0.0
 10
101.1329555397563
 20
7.034299126911177
 30
0.0
 10
105.9582331577938
 20
10.57126354699357
 30
0.0
 10
107.9783011363241
 20
12.05198841544325
 30
0.0
 10
110.2164001633957
 20
13.02401459069623
 30
0.0
 10
112.5198980347704
 20
13.5204255821134
 30
0.0
 10
112.5691602222438
 20
17.3970940133249
 30
0.0
 10
111.410158943861
 20
21.31985246630698
 30
0.0
 10
108.9467825758933
 20
24.68049550407176
 30
0.0
 10
102.910611593382
 20
32.91529723834883
 30
0.0
 10
91.30018686122503
 20
34.70403563507736
 30
0.0
 10
83.06538512694829
 20
28.66786465256698
 30
0.0
 10
74.83058339267025
 20
22.63169367005725
 30
0.0
 10
73.04184499594075
 20
11.02126893789903
 30
0.0
 10
79.07801597845145
 20
2.786467203622604
 30
0.0
 10
83.73797083420216
 20
-3.570841832018438
 30
0.0
 10
91.71902481318575
 20
-6.081863879175406
 30
0.0
 10
98.90536971577617
 20
-4.121421280769503
 30
0.0
  0
SPLINE
  5
14C
330
144
100
AcDbEntity
  8
Cut
 62
   179
420
  1842203
370
    35
100
AcDbSpline
210
0.0
220
0.0
230
1.0
 70
    11
 71
     3
 72
    29
 73
    25
 74
     0
 42
0.0000000001
 43
0.0000000001
 12
1.0
 22
0.0
 32
0.0
 13
1.0
 23
0.0
 33
0.0
 40
0.0
 40
0.0
 40
0.0
 40
0.0
 40
1.0
 40
1.0
 40
1.0
 40
2.0
 40
2.0
 40
2.0
 40
3.0
 40
3.0
 40
3.0
 40
4.0
 40
4.0
 40
4.0
 40
5.0
 40
5.0
 40
5.0
 40
6.0
 40
6.0
 40
6.0
 40
7.0
 40
7.0
 40
7.0
 40
8.0
 40
8.0
 40
8.0
 40
8.0
 10
125.8813685598047
 20
3.717646969921959
 30
0.0
 10
123.7566428378243
 20
6.616288362109533
 30
0.0
 10
120.5672938846797
 20
8.281061226838222
 30
0.0
 10
117.2408594582992
 20
8.575491763593677
 30
0.0
 10
116.0351432756524
 20
3.129642251373669
 30
0.0
 10
112.9280350863225
 20
-1.918205448361747
 30
0.0
 10
108.0865381359354
 20
-5.467058759813673
 30
0.0
 10
107.0559019203084
 20
-6.222522779353963
 30
0.0
 10
105.9837828739052
 20
-6.881323530054703
 30
0.0
 10
104.8815467286864
 20
-7.447738046735613
 30
0.0
 10
105.2623572438967
 20
-8.50975057080629
 30
0.0
 10
105.797368959179
 20
-9.535652579614027
 30
0.0
 10
106.4975342437025
 20
-10.49084790392939
 30
0.0
 10
108.5347188650732
 20
-13.27006199539835
 30
0.0
 10
111.5506606333058
 20
-14.91480086915432
 30
0.0
 10
114.7276832008203
 20
-15.30537663129768
 30
0.0
 10
116.105488953739
 20
-10.32679672636072
 30
0.0
 10
119.1011031061647
 20
-5.759497598871164
 30
0.0
 10
123.5812081367854
 20
-2.475547255310074
 30
0.0
 10
124.9037923346549
 20
-1.506083191120696
 30
0.0
 10
126.2941625981058
 20
-0.693605066464093
 30
0.0
 10
127.7297884325985
 20
-0.0346766843713151
 30
0.0
 10
127.3493096626874
 20
1.280186839545194
 30
0.0
 10
126.7364357105203
 20
2.551127917360399
 30
0.0
 10
125.8813685598047
 20
3.717646969921959
 30
0.0
  0
SPLINE
  5
14D
330
144
100
AcDbEntity
  8
Cut
 62
   179
420
  1842203
370
    35
100
AcDbSpline
210
0.0
220
0.0
230
1.0
 70
    11
 71
     3
 72
    17
 73
    13
 74
     0
 42
0.0000000001
 43
0.0000000001
 12
1.0
 22
0.0
 32
0.0
 13
1.0
 23
0.0
 33
0.0
 40
0.0
 40
0.0
 40
0.0
 40
0.0
 40
1.0
 40
1.0
 40
1.0
 40
2.0
 40
2.0
 40
2.0
 40
3.0
 40
3.0
 40
3.0
 40
4.0
 40
4.0
 40
4.0
 40
4.0
 10
142.108016834359
 20
-46.01488736704385
 30
0.0
 10
141.8655141953879
 20
-46.1926436069356
 30
0.0
 10
141.6346901161479
 20
-46.38027760869183
 30
0.0
 10
141.4094954860724
 20
-46.57239910519925
 30
0.0
 10
141.4094954860724
 20
-46.57239910519925
 30
0.0
 10
157.9584034156942
 20
-58.52028184020666
 30
0.0
 10
157.9584034156942
 20
-58.52028184020666
 30
0.0
 10
157.9584034156942
 20
-58.52028184020666
 30
0.0
 10
153.2873675830901
 20
-44.40629937286872
 30
0.0
 10
153.2873675830901
 20
-44.40629937286872
 30
0.0
 10
149.6515190575447
 20
-43.10135326413492
 30
0.0
 10
145.4511414184973
 20
-43.56435215601542
 30
0.0
 10
142.108016834359
 20
-46.01488736704385
 30
0.0
  0
SPLINE
  5
14E
330
144
100
AcDbEntity
  8
Cut
 62
   179
420
  1842203
370
    35
100
AcDbSpline
210
0.0
220
0.0
230
1.0
 70
    11
 71
     3
 72
    17
 73
    13
 74
     0
 42
0.0000000001
 43
0.0000000001
 12
1.0
 22
0.0
 32
0.0
 13
1.0
 23
0.0
 33
0.0
 40
0.0
 40
0.0
 40
0.0
 40
0.0
 40
1.0
 40
1.0
 40
1.0
 40
2.0
 40
2.0
 40
2.0
 40
3.0
 40
3.0
 40
3.0
 40
4.0
 40
4.0
 40
4.0
 40
4.0
 10
73.3343194726563
 20
26.16570147486573
 30
0.0
 10
75.12128047723085
 20
27.47555719583484
 30
0.0
 10
75.50947858426538
 20
29.99529116650733
 30
0.0
 10
74.19962286329596
 20
31.78225217108122
 30
0.0
 10
72.88976714232555
 20
33.5692131756564
 30
0.0
 10
70.37003317165339
 20
33.95741128269126
 30
0.0
 10
68.58307216707885
 20
32.64755556172086
 30
0.0
 10
66.79611116250304
 20
31.33769984075239
 30
0.0
 10
66.40791305546978
 20
28.81796587007863
 30
0.0
 10
67.71776877643921
 20
27.03100486550409
 30
0.0
 10
69.02762449740864
 20
25.24404386092891
 30
0.0
 10
71.5473584680821
 20
24.85584575389533
 30
0.0
 10
73.3343194726563
 20
26.16570147486573
 30
0.0
  0
SPLINE
  5
14F
330
144
100
AcDbEntity
  8
Cut
 62
   179
420
  1842203
370
    35
100
AcDbSpline
210
0.0
220
0.0
230
1.0
 70
    11
 71
     3
 72
    32
 73
    28
 74
     0
 42
0.0000000001
 43
0.0000000001
 12
1.0
 22
0.0
 32
0.0
 13
1.0
 23
0.0
 33
0.0
 40
0.0
 40
0.0
 40
0.0
 40
0.0
 40
1.0
 40
1.0
 40
1.0
 40
2.0
 40
2.0
 40
2.0
 40
3.0
 40
3.0
 40
3.0
 40
4.0
 40
4.0
 40
4.0
 40
5.0
 40
5.0
 40
5.0
 40
6.0
 40
6.0
 40
6.0
 40
7.0
 40
7.0
 40
7.0
 40
8.0
 40
8.0
 40
8.0
 40
9.0
 40
9.0
 40
9.0
 40
9.0
 10
133.4849952197822
 20
-3.637368043322786
 30
0.0
 10
133.4028780877148
 20
-8.874548350097884
 30
0.0
 10
130.96129535658
 20
-14.01615202822062
 30
0.0
 10
126.4206696457128
 20
-17.34446448100164
 30
0.0
 10
124.20607465852
 20
-18.9677790951305
 30
0.0
 10
121.7299669845885
 20
-19.98223430004234
 30
0.0
 10
119.1922839464358
 20
-20.42523324515267
 30
0.0
 10
118.9038102000077
 20
-24.63419241577538
 30
0.0
 10
120.03705774461
 20
-28.9620429594724
 30
0.0
 10
122.7205998363282
 20
-32.62304546170665
 30
0.0
 10
122.9946599438491
 20
-32.99692994166097
 30
0.0
 10
123.2839785256505
 20
-33.35277098503818
 30
0.0
 10
123.5801311633836
 20
-33.69999162577386
 30
0.0
 10
123.5801311633836
 20
-33.69999162577386
 30
0.0
 10
130.66613236558
 20
-38.81591842983516
 30
0.0
 10
130.66613236558
 20
-38.81591842983516
 30
0.0
 10
136.4257314851453
 20
-41.15346055778125
 30
0.0
 10
143.2315575695464
 20
-40.54730967677656
 30
0.0
 10
148.6023611457741
 20
-36.61047066769105
 30
0.0
 10
149.1868869872426
 20
-36.18200887387319
 30
0.0
 10
149.735118736509
 20
-35.72263735031932
 30
0.0
 10
150.2541902647822
 20
-35.24120775516215
 30
0.0
 10
150.2541902647822
 20
-35.24120775516215
 30
0.0
 10
139.6776954656609
 20
-3.282946375706455
 30
0.0
 10
139.6776954656609
 20
-3.282946375706455
 30
0.0
 10
137.6226902116022
 20
-3.056490078434697
 30
0.0
 10
135.5278235073817
 20
-3.168103011870318
 30
0.0
 10
133.4849952197822
 20
-3.637368043322786
 30
0.0
  0
SPLINE
  5
150
330
144
100
AcDbEntity
  8
Cut
 62
   179
420
  1842203
370
    35
100
AcDbSpline
210
0.0
220
0.0
230
1.0
 70
    11
 71
     3
 72
    20
 73
    16
 74
     0
 42
0.0000000001
 43
0.0000000001
 12
1.0
 22
0.0
 32
0.0
 13
1.0
 23
0.0
 33
0.0
 40
0.0
 40
0.0
 40
0.0
 40
0.0
 40
1.0
 40
1.0
 40
1.0
 40
2.0
 40
2.0
 40
2.0
 40
3.0
 40
3.0
 40
3.0
 40
4.0
 40
4.0
 40
4.0
 40
5.0
 40
5.0
 40
5.0
 40
5.0
 10
49.42673488496259
 20
19.83720522022553
 30
0.0
 10
49.42673488496259
 20
19.83720522022553
 30
0.0
 10
72.77268519286679
 20
2.981893699349008
 30
0.0
 10
72.77268519286679
 20
2.981893699349008
 30
0.0
 10
70.03498534678641
 20
8.383234063892578
 30
0.0
 10
69.53492085860935
 20
14.50448000065182
 30
0.0
 10
71.08546180445683
 20
20.10573314704054
 30
0.0
 10
68.17922127340702
 20
20.0700931028979
 30
0.0
 10
65.29726450257952
 20
21.38640262962411
 30
0.0
 10
63.45182192049305
 20
23.90403405847056
 30
0.0
 10
62.36142974765041
 20
25.39159353648932
 30
0.0
 10
61.78167832455844
 20
27.09830500813923
 30
0.0
 10
61.67506027370968
 20
28.81531892369982
 30
0.0
 10
61.67506027370968
 20
28.81531892369982
 30
0.0
 10
49.42673488496259
 20
19.83720522022553
 30
0.0
 10
49.42673488496259
 20
19.83720522022553
 30
0.0
  0
SPLINE
  5
151
330
144
100
AcDbEntity
  8
Cut
 62
   179
420
  1842203
370
    35
100
AcDbSpline
210
0.0
220
0.0
230
1.0
 70
    11
 71
     3
 72
    20
 73
    16
 74
     0
 42
0.0000000001
 43
0.0000000001
 12
1.0
 22
0.0
 32
0.0
 13
1.0
 23
0.0
 33
0.0
 40
0.0
 40
0.0
 40
0.0
 40
0.0
 40
1.0
 40
1.0
 40
1.0
 40
2.0
 40
2.0
 40
2.0
 40
3.0
 40
3.0
 40
3.0
 40
4.0
 40
4.0
 40
4.0
 40
5.0
 40
5.0
 40
5.0
 40
5.0
 10
111.2340767569703
 20
53.96135316008753
 30
0.0
 10
111.7077471182919
 20
53.31515186390335
 30
0.0
 10
112.1052877581486
 20
52.63630565861023
 30
0.0
 10
112.4309345601775
 20
51.93598872707349
 30
0.0
 10
115.0854698678377
 20
53.69249847211069
 30
0.0
 10
118.3535317331183
 20
53.91022281423036
 30
0.0
 10
121.1291748957121
 20
52.76360968817065
 30
0.0
 10
121.1291748957121
 20
52.76360968817065
 30
0.0
 10
115.9004349991286
 20
68.56292232632867
 30
0.0
 10
115.9004349991286
 20
68.56292232632867
 30
0.0
 10
115.9004349991286
 20
68.56292232632867
 30
0.0
 10
102.5677763818374
 20
58.7899842930522
 30
0.0
 10
102.5677763818374
 20
58.7899842930522
 30
0.0
 10
105.9018836402297
 20
58.52042315724918
 30
0.0
 10
109.1059844395363
 20
56.86458740528658
 30
0.0
 10
111.2340767569703
 20
53.96135316008753
 30
0.0
  0
SPLINE
  5
152
330
144
100
AcDbEntity
  8
Cut
 62
   179
420
  1842203
370
    35
100
AcDbSpline
210
0.0
220
0.0
230
1.0
 70
    11
 71
     3
 72
    26
 73
    22
 74
     0
 42
0.0000000001
 43
0.0000000001
 12
1.0
 22
0.0
 32
0.0
 13
1.0
 23
0.0
 33
0.0
 40
0.0
 40
0.0
 40
0.0
 40
0.0
 40
1.0
 40
1.0
 40
1.0
 40
2.0
 40
2.0
 40
2.0
 40
3.0
 40
3.0
 40
3.0
 40
4.0
 40
4.0
 40
4.0
 40
5.0
 40
5.0
 40
5.0
 40
6.0
 40
6.0
 40
6.0
 40
7.0
 40
7.0
 40
7.0
 40
7.0
 10
78.46556971924116
 20
34.90922297811539
 30
0.0
 10
78.97082836475234
 20
34.21992759825179
 30
0.0
 10
79.3645526509242
 20
33.48298945111915
 30
0.0
 10
79.65485214011042
 20
32.72037036481589
 30
0.0
 10
79.74919679716398
 20
32.7916842248752
 30
0.0
 10
79.84272550804288
 20
32.86367089697068
 30
0.0
 10
79.93841431991476
 20
32.93381150851315
 30
0.0
 10
84.2504471752139
 20
36.09456369619988
 30
0.0
 10
89.28236000362467
 20
37.58607980761645
 30
0.0
 10
94.2568000086024
 20
37.52895936718567
 30
0.0
 10
93.4197386824372
 20
38.18500276084147
 30
0.0
 10
92.65588498364905
 20
38.9615616152435
 30
0.0
 10
91.9970037782179
 20
39.86043543921009
 30
0.0
 10
89.86891146078459
 20
42.76366968440851
 30
0.0
 10
89.25423494410306
 20
46.31757271480213
 30
0.0
 10
90.00062825951578
 20
49.5781711521097
 30
0.0
 10
90.00062825951578
 20
49.5781711521097
 30
0.0
 10
74.31679632892697
 20
38.08180557479132
 30
0.0
 10
74.31679632892697
 20
38.08180557479132
 30
0.0
 10
75.9221016845166
 20
37.46334061191231
 30
0.0
 10
77.37517754639724
 20
36.39678245613285
 30
0.0
 10
78.46556971924116
 20
34.90922297811539
 30
0.0
  0
SPLINE
  5
153
330
144
100
AcDbEntity
  8
Cut
 62
   179
420
  1842203
370
    35
100
AcDbSpline
210
0.0
220
0.0
230
1.0
 70
    11
 71
     3
 72
    17
 73
    13
 74
     0
 42
0.0000000001
 43
0.0000000001
 12
1.0
 22
0.0
 32
0.0
 13
1.0
 23
0.0
 33
0.0
 40
0.0
 40
0.0
 40
0.0
 40
0.0
 40
1.0
 40
1.0
 40
1.0
 40
2.0
 40
2.0
 40
2.0
 40
3.0
 40
3.0
 40
3.0
 40
4.0
 40
4.0
 40
4.0
 40
4.0
 10
105.5390002922554
 20
41.55812273596752
 30
0.0
 10
108.4903938818812
 20
43.7215162114308
 30
0.0
 10
109.1315233764868
 20
47.88298876342877
 30
0.0
 10
106.9681299010248
 20
50.83438235305529
 30
0.0
 10
104.8047364255608
 20
53.78577594268085
 30
0.0
 10
100.6432638735642
 20
54.42690543728734
 30
0.0
 10
97.69187028393796
 20
52.26351196182407
 30
0.0
 10
94.74047669431175
 20
50.1001184863608
 30
0.0
 10
94.09955715870015
 20
45.93879983586885
 30
0.0
 10
96.2629506341631
 20
42.98740624624297
 30
0.0
 10
98.42634410962766
 20
40.03601265661644
 30
0.0
 10
102.5876067026288
 20
39.39472926050426
 30
0.0
 10
105.5390002922554
 20
41.55812273596752
 30
0.0
  0
SPLINE
  5
154
330
144
100
AcDbEntity
  8
Cut
 62
   179
420
  1842203
370
    35
100
AcDbSpline
210
0.0
220
0.0
230
1.0
 70
    11
 71
     3
 72
    35
 73
    31
 74
     0
 42
0.0000000001
 43
0.0000000001
 12
1.0
 22
0.0
 32
0.0
 13
1.0
 23
0.0
 33
0.0
 40
0.0
 40
0.0
 40
0.0
 40
0.0
 40
1.0
 40
1.0
 40
1.0
 40
2.0
 40
2.0
 40
2.0
 40
3.0
 40
3.0
 40
3.0
 40
4.0
 40
4.0
 40
4.0
 40
5.0
 40
5.0
 40
5.0
 40
6.0
 40
6.0
 40
6.0
 40
7.0
 40
7.0
 40
7.0
 40
8.0
 40
8.0
 40
8.0
 40
9.0
 40
9.0
 40
9.0
 40
10.0
 40
10.0
 40
10.0
 40
10.0
 10
123.0651779370938
 20
36.66453696124545
 30
0.0
 10
118.9606370583858
 20
33.65587793725729
 30
0.0
 10
113.1895428150088
 20
34.51647149738321
 30
0.0
 10
110.1344768356253
 20
38.56686295696034
 30
0.0
 10
109.6866840523266
 20
38.11016507477076
 30
0.0
 10
109.1982696408049
 20
37.68235467412207
 30
0.0
 10
108.6659710992889
 20
37.292175880022
 30
0.0
 10
107.2788770002727
 20
36.27542557799178
 30
0.0
 10
105.7426331255692
 20
35.60669221860242
 30
0.0
 10
104.1612033671884
 20
35.26347502499853
 30
0.0
 10
107.6459424371723
 20
33.62801874720586
 30
0.0
 10
110.7811625814722
 20
31.12471344913566
 30
0.0
 10
113.2127294318372
 20
27.80746631110528
 30
0.0
 10
116.3008304896606
 20
23.59454722377901
 30
0.0
 10
117.7942708864275
 20
18.69450448793027
 30
0.0
 10
117.8081188406377
 20
13.83224109308179
 30
0.0
 10
122.5609648792823
 20
13.38279773227213
 30
0.0
 10
127.1095497693646
 20
10.98886715055069
 30
0.0
 10
130.1473154157516
 20
6.844617776954838
 30
0.0
 10
131.3399559019093
 20
5.217566791779615
 30
0.0
 10
132.2020416430043
 20
3.448779728300816
 30
0.0
 10
132.7531478454546
 20
1.618773197257882
 30
0.0
 10
134.4510226900316
 20
1.973431188656794
 30
0.0
 10
136.1740193679617
 20
2.137167188602058
 30
0.0
 10
137.8902447976597
 20
2.118154092943783
 30
0.0
 10
137.8902447976597
 20
2.118154092943783
 30
0.0
 10
125.5526281442765
 20
39.39756339951579
 30
0.0
 10
125.5526281442765
 20
39.39756339951579
 30
0.0
 10
124.9335440119384
 20
38.35816457566562
 30
0.0
 10
124.1008006788479
 20
37.42365614156333
 30
0.0
 10
123.0651779370938
 20
36.66453696124545
 30
0.0
  0
SPLINE
  5
155
330
144
100
AcDbEntity
  8
Cut
 62
   179
420
  1842203
370
    35
100
AcDbSpline
210
0.0
220
0.0
230
1.0
 70
    11
 71
     3
 72
    17
 73
    13
 74
     0
 42
0.0000000001
 43
0.0000000001
 12
1.0
 22
0.0
 32
0.0
 13
1.0
 23
0.0
 33
0.0
 40
0.0
 40
0.0
 40
0.0
 40
0.0
 40
1.0
 40
1.0
 40
1.0
 40
2.0
 40
2.0
 40
2.0
 40
3.0
 40
3.0
 40
3.0
 40
4.0
 40
4.0
 40
4.0
 40
4.0
 10
115.1869598244831
 20
47.41233790404676
 30
0.0
 10
113.3999988199086
 20
46.10248218307829
 30
0.0
 10
113.0118007128743
 20
43.58274821240548
 30
0.0
 10
114.3216564338447
 20
41.79578720783127
 30
0.0
 10
115.6315121548126
 20
40.00882620325608
 30
0.0
 10
118.1512461254863
 20
39.62062809622187
 30
0.0
 10
119.9382071300602
 20
40.93048381719066
 30
0.0
 10
121.725168134636
 20
42.24033953816074
 30
0.0
 10
122.1133662416696
 20
44.76007350883322
 30
0.0
 10
120.8035105206999
 20
46.5470345134084
 30
0.0
 10
119.4936547997295
 20
48.33399551798294
 30
0.0
 10
116.9739208290576
 20
48.7221936250178
 30
0.0
 10
115.1869598244831
 20
47.41233790404676
 30
0.0
  0
ENDBLK
  5
147
330
144
100
AcDbEntity
  8
0
100
AcDbBlockEnd
  0
ENDSEC
  0
SECTION
  2
ENTITIES
  0
INSERT
  5
42
330
1F
100
AcDbEntity
  8
Cut
100
AcDbBlockReference
  2
block 2
 10
0.0
 20
0.0
 30
0.0
  0
INSERT
  5
54
330
1F
100
AcDbEntity
  8
Cut
100
AcDbBlockReference
  2
block 3
 10
0.0
 20
0.0
 30
0.0
  0
INSERT
  5
64
330
1F
100
AcDbEntity
  8
Cut
100
AcDbBlockReference
  2
block 4
 10
0.0
 20
0.0
 30
0.0
  0
POLYLINE
  5
74
330
1F
100
AcDbEntity
  8
Cut
 62
   179
420
  1842203
370
    35
100
AcDb2dPolyline
 66
     1
 10
0.0
 20
0.0
 30
0.0
  0
VERTEX
  5
75
330
74
100
AcDbEntity
  8
Cut
 62
   179
420
  1842203
370
    35
100
AcDbVertex
100
AcDb2dVertex
 10
63.39781315487154
 20
-261.2219320529751
 30
0.0
  0
VERTEX
  5
76
330
74
100
AcDbEntity
  8
Cut
 62
   179
420
  1842203
370
    35
100
AcDbVertex
100
AcDb2dVertex
 10
68.26915753549613
 20
-262.2444285443782
 30
0.0
  0
VERTEX
  5
77
330
74
100
AcDbEntity
  8
Cut
 62
   179
420
  1842203
370
    35
100
AcDbVertex
100
AcDb2dVertex
 10
89.2900355903516
 20
-233.5797312125005
 30
0.0
  0
VERTEX
  5
78
330
74
100
AcDbEntity
  8
Cut
 62
   179
420
  1842203
370
    35
100
AcDbVertex
100
AcDb2dVertex
 10
89.2900355903516
 20
-233.5797312125005
 30
0.0
  0
VERTEX
  5
79
330
74
100
AcDbEntity
  8
Cut
 62
   179
420
  1842203
370
    35
100
AcDbVertex
100
AcDb2dVertex
 10
89.2900571385261
 20
-233.5797096969933
 30
0.0
  0
VERTEX
  5
7A
330
74
100
AcDbEntity
  8
Cut
 62
   179
420
  1842203
370
    35
100
AcDbVertex
100
AcDb2dVertex
 10
155.9540878984924
 20
-142.6746300994839
 30
0.0
  0
VERTEX
  5
7B
330
74
100
AcDbEntity
  8
Cut
 62
   179
420
  1842203
370
    35
100
AcDbVertex
100
AcDb2dVertex
 10
157.5251056116969
 20
-132.868041288874
 30
0.0
  0
VERTEX
  5
7C
330
74
100
AcDbEntity
  8
Cut
 62
   179
420
  1842203
370
    35
100
AcDbVertex
100
AcDb2dVertex
 10
63.59474352401168
 20
-4.373451932875523
 30
0.0
  0
VERTEX
  5
7D
330
74
100
AcDbEntity
  8
Cut
 62
   179
420
  1842203
370
    35
100
AcDbVertex
100
AcDb2dVertex
 10
63.59498061926442
 20
-4.373129134938067
 30
0.0
  0
VERTEX
  5
7E
330
74
100
AcDbEntity
  8
Cut
 62
   179
420
  1842203
370
    35
100
AcDbVertex
100
AcDb2dVertex
 10
63.59433484371826
 20
-4.37289179467886
 30
0.0
  0
VERTEX
  5
7F
330
74
100
AcDbEntity
  8
Cut
 62
   179
420
  1842203
370
    35
100
AcDbVertex
100
AcDb2dVertex
 10
63.59396917810513
 20
-4.372396284671229
 30
0.0
  0
VERTEX
  5
80
330
74
100
AcDbEntity
  8
Cut
 62
   179
420
  1842203
370
    35
100
AcDbVertex
100
AcDb2dVertex
 10
63.59373211551968
 20
-4.372676018927312
 30
0.0
  0
VERTEX
  5
81
330
74
100
AcDbEntity
  8
Cut
 62
   179
420
  1842203
370
    35
100
AcDbVertex
100
AcDb2dVertex
 10
59.14089359701327
 20
-2.794049323892194
 30
0.0
  0
VERTEX
  5
82
330
74
100
AcDbEntity
  8
Cut
 62
   179
420
  1842203
370
    35
100
AcDbVertex
100
AcDb2dVertex
 10
3.234480394245322
 20
-80.01483968600701
 30
0.0
  0
VERTEX
  5
83
330
74
100
AcDbEntity
  8
Cut
 62
   179
420
  1842203
370
    35
100
AcDbVertex
100
AcDb2dVertex
 10
6.125202524422513
 20
-83.7532827411411
 30
0.0
  0
VERTEX
  5
84
330
74
100
AcDbEntity
  8
Cut
 62
   179
420
  1842203
370
    35
100
AcDbVertex
100
AcDb2dVertex
 10
6.050861134699999
 20
-181.7531728001668
 30
0.0
  0
VERTEX
  5
85
330
74
100
AcDbEntity
  8
Cut
 62
   179
420
  1842203
370
    35
100
AcDbVertex
100
AcDb2dVertex
 10
3.154384408140086
 20
-185.4871396371927
 30
0.0
  0
VERTEX
  5
86
330
74
100
AcDbEntity
  8
Cut
 62
   179
420
  1842203
370
    35
100
AcDbVertex
100
AcDb2dVertex
 10
58.94176637225635
 20
-262.7939728430675
 30
0.0
  0
VERTEX
  5
87
330
74
100
AcDbEntity
  8
Cut
 62
   179
420
  1842203
370
    35
100
AcDbVertex
100
AcDb2dVertex
 10
63.39781315487154
 20
-261.2219320529751
 30
0.0
  0
SEQEND
  5
88
330
74
100
AcDbEntity
  8
Cut
 62
   179
420
  1842203
370
    35
  0
POLYLINE
  5
89
330
1F
100
AcDbEntity
  8
Cut
 62
   179
420
  1842203
370
    35
100
AcDb2dPolyline
 66
     1
 10
0.0
 20
0.0
 30
0.0
  0
VERTEX
  5
8A
330
89
100
AcDbEntity
  8
Cut
 62
   179
420
  1842203
370
    35
100
AcDbVertex
100
AcDb2dVertex
 10
63.39755565480761
 20
-261.2207691375781
 30
0.0
  0
VERTEX
  5
8B
330
89
100
AcDbEntity
  8
Cut
 62
   179
420
  1842203
370
    35
100
AcDbVertex
100
AcDb2dVertex
 10
63.3975556384738
 20
-261.2207906694191
 30
0.0
  0
VERTEX
  5
8C
330
89
100
AcDbEntity
  8
Cut
 62
   179
420
  1842203
370
    35
100
AcDbVertex
100
AcDb2dVertex
 10
63.3974911082873
 20
-261.2207044930549
 30
0.0
  0
VERTEX
  5
8D
330
89
100
AcDbEntity
  8
Cut
 62
   179
420
  1842203
370
    35
100
AcDbVertex
100
AcDb2dVertex
 10
63.39755565480761
 20
-261.2207691375781
 30
0.0
  0
SEQEND
  5
8E
330
89
100
AcDbEntity
  8
Cut
 62
   179
420
  1842203
370
    35
  0
INSERT
  5
90
330
1F
100
AcDbEntity
  8
Cut
100
AcDbBlockReference
  2
block 5
 10
0.0
 20
0.0
 30
0.0
  0
INSERT
  5
A2
330
1F
100
AcDbEntity
  8
Cut
100
AcDbBlockReference
  2
block 6
 10
0.0
 20
0.0
 30
0.0
  0
INSERT
  5
B2
330
1F
100
AcDbEntity
  8
Cut
100
AcDbBlockReference
  2
block 7
 10
0.0
 20
0.0
 30
0.0
  0
POLYLINE
  5
C2
330
1F
100
AcDbEntity
  8
Cut
 62
   179
420
  1842203
370
    35
100
AcDb2dPolyline
 66
     1
 10
0.0
 20
0.0
 30
0.0
  0
VERTEX
  5
C3
330
C2
100
AcDbEntity
  8
Cut
 62
   179
420
  1842203
370
    35
100
AcDbVertex
100
AcDb2dVertex
 10
260.2519295496199
 20
-320.3050146495214
 30
0.0
  0
VERTEX
  5
C4
330
C2
100
AcDbEntity
  8
Cut
 62
   179
420
  1842203
370
    35
100
AcDbVertex
100
AcDb2dVertex
 10
261.2744260410224
 20
-315.4336702688964
 30
0.0
  0
VERTEX
  5
C5
330
C2
100
AcDbEntity
  8
Cut
 62
   179
420
  1842203
370
    35
100
AcDbVertex
100
AcDb2dVertex
 10
232.6097287091447
 20
-294.4127922140413
 30
0.0
  0
VERTEX
  5
C6
330
C2
100
AcDbEntity
  8
Cut
 62
   179
420
  1842203
370
    35
100
AcDbVertex
100
AcDb2dVertex
 10
232.6097287091447
 20
-294.4127922140413
 30
0.0
  0
VERTEX
  5
C7
330
C2
100
AcDbEntity
  8
Cut
 62
   179
420
  1842203
370
    35
100
AcDbVertex
100
AcDb2dVertex
 10
232.6097071936381
 20
-294.4127706658665
 30
0.0
  0
VERTEX
  5
C8
330
C2
100
AcDbEntity
  8
Cut
 62
   179
420
  1842203
370
    35
100
AcDbVertex
100
AcDb2dVertex
 10
141.7046275961284
 20
-227.7487399059002
 30
0.0
  0
VERTEX
  5
C9
330
C2
100
AcDbEntity
  8
Cut
 62
   179
420
  1842203
370
    35
100
AcDbVertex
100
AcDb2dVertex
 10
131.8980387855188
 20
-226.1777221926956
 30
0.0
  0
VERTEX
  5
CA
330
C2
100
AcDbEntity
  8
Cut
 62
   179
420
  1842203
370
    35
100
AcDbVertex
100
AcDb2dVertex
 10
3.403449429520041
 20
-320.1080842803809
 30
0.0
  0
VERTEX
  5
CB
330
C2
100
AcDbEntity
  8
Cut
 62
   179
420
  1842203
370
    35
100
AcDbVertex
100
AcDb2dVertex
 10
3.403126631582584
 20
-320.1078471851285
 30
0.0
  0
VERTEX
  5
CC
330
C2
100
AcDbEntity
  8
Cut
 62
   179
420
  1842203
370
    35
100
AcDbVertex
100
AcDb2dVertex
 10
3.402889291323377
 20
-320.108492960674
 30
0.0
  0
VERTEX
  5
CD
330
C2
100
AcDbEntity
  8
Cut
 62
   179
420
  1842203
370
    35
100
AcDbVertex
100
AcDb2dVertex
 10
3.402393781315746
 20
-320.1088586262878
 30
0.0
  0
VERTEX
  5
CE
330
C2
100
AcDbEntity
  8
Cut
 62
   179
420
  1842203
370
    35
100
AcDbVertex
100
AcDb2dVertex
 10
3.402673515571829
 20
-320.1090956888726
 30
0.0
  0
VERTEX
  5
CF
330
C2
100
AcDbEntity
  8
Cut
 62
   179
420
  1842203
370
    35
100
AcDbVertex
100
AcDb2dVertex
 10
1.824046820536712
 20
-324.5619342073796
 30
0.0
  0
VERTEX
  5
D0
330
C2
100
AcDbEntity
  8
Cut
 62
   179
420
  1842203
370
    35
100
AcDbVertex
100
AcDb2dVertex
 10
79.04483718265152
 20
-380.4683474101476
 30
0.0
  0
VERTEX
  5
D1
330
C2
100
AcDbEntity
  8
Cut
 62
   179
420
  1842203
370
    35
100
AcDbVertex
100
AcDb2dVertex
 10
82.78328023778562
 20
-377.5776252799701
 30
0.0
  0
VERTEX
  5
D2
330
C2
100
AcDbEntity
  8
Cut
 62
   179
420
  1842203
370
    35
100
AcDbVertex
100
AcDb2dVertex
 10
180.7831702968117
 20
-377.6519666696933
 30
0.0
  0
VERTEX
  5
D3
330
C2
100
AcDbEntity
  8
Cut
 62
   179
420
  1842203
370
    35
100
AcDbVertex
100
AcDb2dVertex
 10
260.2519295496199
 20
-320.3050146495214
 30
0.0
  0
SEQEND
  5
D4
330
C2
100
AcDbEntity
  8
Cut
 62
   179
420
  1842203
370
    35
  0
POLYLINE
  5
D5
330
1F
100
AcDbEntity
  8
Cut
 62
   179
420
  1842203
370
    35
100
AcDb2dPolyline
 66
     1
 10
0.0
 20
0.0
 30
0.0
  0
VERTEX
  5
D6
330
D5
100
AcDbEntity
  8
Cut
 62
   179
420
  1842203
370
    35
100
AcDbVertex
100
AcDb2dVertex
 10
260.2507666342229
 20
-320.3052721495853
 30
0.0
  0
VERTEX
  5
D7
330
D5
100
AcDbEntity
  8
Cut
 62
   179
420
  1842203
370
    35
100
AcDbVertex
100
AcDb2dVertex
 10
260.2507881660633
 20
-320.3052721659191
 30
0.0
  0
VERTEX
  5
D8
330
D5
100
AcDbEntity
  8
Cut
 62
   179
420
  1842203
370
    35
100
AcDbVertex
100
AcDb2dVertex
 10
260.2507019896991
 20
-320.3053366961056
 30
0.0
  0
VERTEX
  5
D9
330
D5
100
AcDbEntity
  8
Cut
 62
   179
420
  1842203
370
    35
100
AcDbVertex
100
AcDb2dVertex
 10
260.2507666342229
 20
-320.3052721495853
 30
0.0
  0
SEQEND
  5
DA
330
D5
100
AcDbEntity
  8
Cut
 62
   179
420
  1842203
370
    35
  0
INSERT
  5
DC
330
1F
100
AcDbEntity
  8
Cut
100
AcDbBlockReference
  2
block 8
 10
0.0
 20
0.0
 30
0.0
  0
INSERT
  5
EE
330
1F
100
AcDbEntity
  8
Cut
100
AcDbBlockReference
  2
block 9
 10
0.0
 20
0.0
 30
0.0
  0
INSERT
  5
FF
330
1F
100
AcDbEntity
  8
Cut
100
AcDbBlockReference
  2
block 10
 10
0.0
 20
0.0
 30
0.0
  0
POLYLINE
  5
110
330
1F
100
AcDbEntity
  8
Cut
 62
   179
420
  1842203
370
    35
100
AcDb2dPolyline
 66
     1
 10
0.0
 20
0.0
 30
0.0
  0
VERTEX
  5
111
330
110
100
AcDbEntity
  8
Cut
 62
   179
420
  1842203
370
    35
100
AcDbVertex
100
AcDb2dVertex
 10
237.1173965589658
 20
-40.69327275145623
 30
0.0
  0
VERTEX
  5
112
330
110
100
AcDbEntity
  8
Cut
 62
   179
420
  1842203
370
    35
100
AcDbVertex
100
AcDb2dVertex
 10
232.2385645188734
 20
-39.70712211684541
 30
0.0
  0
VERTEX
  5
113
330
110
100
AcDbEntity
  8
Cut
 62
   179
420
  1842203
370
    35
100
AcDbVertex
100
AcDb2dVertex
 10
145.4474808356532
 20
-159.9273170848233
 30
0.0
  0
VERTEX
  5
114
330
110
100
AcDbEntity
  8
Cut
 62
   179
420
  1842203
370
    35
100
AcDbVertex
100
AcDb2dVertex
 10
143.9496606892264
 20
-169.7452809178321
 30
0.0
  0
VERTEX
  5
115
330
110
100
AcDbEntity
  8
Cut
 62
   179
420
  1842203
370
    35
100
AcDbVertex
100
AcDb2dVertex
 10
238.8353597533545
 20
-297.5360828981257
 30
0.0
  0
VERTEX
  5
116
330
110
100
AcDbEntity
  8
Cut
 62
   179
420
  1842203
370
    35
100
AcDbVertex
100
AcDb2dVertex
 10
238.8351250712531
 20
-297.5364074547138
 30
0.0
  0
VERTEX
  5
117
330
110
100
AcDbEntity
  8
Cut
 62
   179
420
  1842203
370
    35
100
AcDbVertex
100
AcDb2dVertex
 10
238.8357725983007
 20
-297.5366399739122
 30
0.0
  0
VERTEX
  5
118
330
110
100
AcDbEntity
  8
Cut
 62
   179
420
  1842203
370
    35
100
AcDbVertex
100
AcDb2dVertex
 10
238.8361419479382
 20
-297.5371327439939
 30
0.0
  0
VERTEX
  5
119
330
110
100
AcDbEntity
  8
Cut
 62
   179
420
  1842203
370
    35
100
AcDbVertex
100
AcDb2dVertex
 10
238.8363767742326
 20
-297.53682971877
 30
0.0
  0
VERTEX
  5
11A
330
110
100
AcDbEntity
  8
Cut
 62
   179
420
  1842203
370
    35
100
AcDbVertex
100
AcDb2dVertex
 10
243.3008608568901
 20
-299.082236728703
 30
0.0
  0
VERTEX
  5
11B
330
110
100
AcDbEntity
  8
Cut
 62
   179
420
  1842203
370
    35
100
AcDbVertex
100
AcDb2dVertex
 10
298.6300145008104
 20
-221.4467921276978
 30
0.0
  0
VERTEX
  5
11C
330
110
100
AcDbEntity
  8
Cut
 62
   179
420
  1842203
370
    35
100
AcDbVertex
100
AcDb2dVertex
 10
295.7115014112937
 20
-217.7300042326607
 30
0.0
  0
VERTEX
  5
11D
330
110
100
AcDbEntity
  8
Cut
 62
   179
420
  1842203
370
    35
100
AcDbVertex
100
AcDb2dVertex
 10
295.0552200115623
 20
-119.7322834788199
 30
0.0
  0
VERTEX
  5
11E
330
110
100
AcDbEntity
  8
Cut
 62
   179
420
  1842203
370
    35
100
AcDbVertex
100
AcDb2dVertex
 10
237.1173965589658
 20
-40.69327275145623
 30
0.0
  0
SEQEND
  5
11F
330
110
100
AcDbEntity
  8
Cut
 62
   179
420
  1842203
370
    35
  0
SPLINE
  5
120
330
1F
100
AcDbEntity
  8
Cut
 62
   179
420
  1842203
370
    35
100
AcDbSpline
210
0.0
220
0.0
230
1.0
 70
    27
 71
     3
 72
    14
 73
    10
 74
     0
 42
0.0000000001
 43
0.0000000001
 12
1.0
 22
0.0
 32
0.0
 13
1.0
 23
0.0
 33
0.0
 40
0.0
 40
0.0
 40
0.0
 40
0.0
 40
1.0
 40
1.0
 40
1.0
 40
2.0
 40
2.0
 40
2.0
 40
3.0
 40
3.0
 40
3.0
 40
3.0
 10
237.1176625775883
 20
-40.69441218342448
 30
0.0
 10
237.1176625775883
 20
-40.69441218342448
 30
0.0
 10
237.1176625775883
 20
-40.69441218342448
 30
0.0
 10
237.1176625775883
 20
-40.69441218342448
 30
0.0
 10
237.1176625775883
 20
-40.69441218342448
 30
0.0
 10
237.1177277484542
 20
-40.69449787629986
 30
0.0
 10
237.1177277484542
 20
-40.69449787629986
 30
0.0
 10
237.1177277484542
 20
-40.69449787629986
 30
0.0
 10
237.1176625775883
 20
-40.69441218342448
 30
0.0
 10
237.1176625775883
 20
-40.69441218342448
 30
0.0
  0
INSERT
  5
122
330
1F
100
AcDbEntity
  8
Cut
100
AcDbBlockReference
  2
block 11
 10
0.0
 20
0.0
 30
0.0
  0
INSERT
  5
134
330
1F
100
AcDbEntity
  8
Cut
100
AcDbBlockReference
  2
block 12
 10
0.0
 20
0.0
 30
0.0
  0
INSERT
  5
145
330
1F
100
AcDbEntity
  8
Cut
100
AcDbBlockReference
  2
block 13
 10
0.0
 20
0.0
 30
0.0
  0
POLYLINE
  5
156
330
1F
100
AcDbEntity
  8
Cut
 62
   179
420
  1842203
370
    35
100
AcDb2dPolyline
 66
     1
 10
0.0
 20
0.0
 30
0.0
  0
VERTEX
  5
157
330
156
100
AcDbEntity
  8
Cut
 62
   179
420
  1842203
370
    35
100
AcDbVertex
100
AcDb2dVertex
 10
39.79413119565805
 20
19.80153293506587
 30
0.0
  0
VERTEX
  5
158
330
156
100
AcDbEntity
  8
Cut
 62
   179
420
  1842203
370
    35
100
AcDbVertex
100
AcDb2dVertex
 10
38.80798056104724
 20
14.92270089497345
 30
0.0
  0
VERTEX
  5
159
330
156
100
AcDbEntity
  8
Cut
 62
   179
420
  1842203
370
    35
100
AcDbVertex
100
AcDb2dVertex
 10
159.0281755290254
 20
-71.86838278824675
 30
0.0
  0
VERTEX
  5
15A
330
156
100
AcDbEntity
  8
Cut
 62
   179
420
  1842203
370
    35
100
AcDbVertex
100
AcDb2dVertex
 10
168.8461393620337
 20
-73.36620293467355
 30
0.0
  0
VERTEX
  5
15B
330
156
100
AcDbEntity
  8
Cut
 62
   179
420
  1842203
370
    35
100
AcDbVertex
100
AcDb2dVertex
 10
296.6369413423272
 20
21.51949612945459
 30
0.0
  0
VERTEX
  5
15C
330
156
100
AcDbEntity
  8
Cut
 62
   179
420
  1842203
370
    35
100
AcDbVertex
100
AcDb2dVertex
 10
296.6372658989153
 20
21.51926144735312
 30
0.0
  0
VERTEX
  5
15D
330
156
100
AcDbEntity
  8
Cut
 62
   179
420
  1842203
370
    35
100
AcDbVertex
100
AcDb2dVertex
 10
296.6374984181143
 20
21.51990897440076
 30
0.0
  0
VERTEX
  5
15E
330
156
100
AcDbEntity
  8
Cut
 62
   179
420
  1842203
370
    35
100
AcDbVertex
100
AcDb2dVertex
 10
296.6379911881961
 20
21.52027832403824
 30
0.0
  0
VERTEX
  5
15F
330
156
100
AcDbEntity
  8
Cut
 62
   179
420
  1842203
370
    35
100
AcDbVertex
100
AcDb2dVertex
 10
296.6376881629722
 20
21.5205131503327
 30
0.0
  0
VERTEX
  5
160
330
156
100
AcDbEntity
  8
Cut
 62
   179
420
  1842203
370
    35
100
AcDbVertex
100
AcDb2dVertex
 10
298.1830951729052
 20
25.98499723299012
 30
0.0
  0
VERTEX
  5
161
330
156
100
AcDbEntity
  8
Cut
 62
   179
420
  1842203
370
    35
100
AcDbVertex
100
AcDb2dVertex
 10
220.5476505718994
 20
81.3141508769105
 30
0.0
  0
VERTEX
  5
162
330
156
100
AcDbEntity
  8
Cut
 62
   179
420
  1842203
370
    35
100
AcDbVertex
100
AcDb2dVertex
 10
216.8308626768622
 20
78.39563778739371
 30
0.0
  0
VERTEX
  5
163
330
156
100
AcDbEntity
  8
Cut
 62
   179
420
  1842203
370
    35
100
AcDbVertex
100
AcDb2dVertex
 10
118.833141923022
 20
77.73935638766237
 30
0.0
  0
VERTEX
  5
164
330
156
100
AcDbEntity
  8
Cut
 62
   179
420
  1842203
370
    35
100
AcDbVertex
100
AcDb2dVertex
 10
115.0776846915024
 20
80.6079146927596
 30
0.0
  0
VERTEX
  5
165
330
156
100
AcDbEntity
  8
Cut
 62
   179
420
  1842203
370
    35
100
AcDbVertex
100
AcDb2dVertex
 10
38.18891283159763
 20
24.24573580827614
 30
0.0
  0
VERTEX
  5
166
330
156
100
AcDbEntity
  8
Cut
 62
   179
420
  1842203
370
    35
100
AcDbVertex
100
AcDb2dVertex
 10
39.79413119565805
 20
19.80153293506587
 30
0.0
  0
SEQEND
  5
167
330
156
100
AcDbEntity
  8
Cut
 62
   179
420
  1842203
370
    35
  0
SPLINE
  5
168
330
1F
100
AcDbEntity
  8
Cut
 62
   179
420
  1842203
370
    35
100
AcDbSpline
210
0.0
220
0.0
230
1.0
 70
    27
 71
     3
 72
    14
 73
    10
 74
     0
 42
0.0000000001
 43
0.0000000001
 12
1.0
 22
0.0
 32
0.0
 13
1.0
 23
0.0
 33
0.0
 40
0.0
 40
0.0
 40
0.0
 40
0.0
 40
1.0
 40
1.0
 40
1.0
 40
2.0
 40
2.0
 40
2.0
 40
3.0
 40
3.0
 40
3.0
 40
3.0
 10
39.7952706276263
 20
19.8017989536884
 30
0.0
 10
39.7952706276263
 20
19.8017989536884
 30
0.0
 10
39.7952706276263
 20
19.8017989536884
 30
0.0
 10
39.7952706276263
 20
19.8017989536884
 30
0.0
 10
39.7952706276263
 20
19.8017989536884
 30
0.0
 10
39.79535632050169
 20
19.80186412455429
 30
0.0
 10
39.79535632050169
 20
19.80186412455429
 30
0.0
 10
39.79535632050169
 20
19.80186412455429
 30
0.0
 10
39.7952706276263
 20
19.8017989536884
 30
0.0
 10
39.7952706276263
 20
19.8017989536884
 30
0.0
  0
POLYLINE
  5
16A
330
1F
100
AcDbEntity
  8
Ritzen
 62
    12
420
 14877971
370
    35
100
AcDb2dPolyline
 66
     1
 10
0.0
 20
0.0
 30
0.0
  0
VERTEX
  5
16B
330
16A
100
AcDbEntity
  8
Ritzen
 62
    12
420
 14877971
370
    35
100
AcDbVertex
100
AcDb2dVertex
 10
6.125203106722681
 20
-83.75328146346955
 30
0.0
  0
VERTEX
  5
16C
330
16A
100
AcDbEntity
  8
Ritzen
 62
    12
420
 14877971
370
    35
100
AcDbVertex
100
AcDb2dVertex
 10
157.5251033475254
 20
-132.8680338060908
 30
0.0
  0
VERTEX
  5
16D
330
16A
100
AcDbEntity
  8
Ritzen
 62
    12
420
 14877971
370
    35
100
AcDbVertex
100
AcDb2dVertex
 10
6.050861718872965
 20
-181.7531690537565
 30
0.0
  0
SEQEND
  5
16E
330
16A
100
AcDbEntity
  8
Ritzen
 62
    12
420
 14877971
370
    35
  0
POLYLINE
  5
16F
330
1F
100
AcDbEntity
  8
Ritzen
 62
    12
420
 14877971
370
    35
100
AcDb2dPolyline
 66
     1
 10
0.0
 20
0.0
 30
0.0
  0
VERTEX
  5
170
330
16F
100
AcDbEntity
  8
Ritzen
 62
    12
420
 14877971
370
    35
100
AcDbVertex
100
AcDb2dVertex
 10
63.3974911082873
 20
-261.2207044930549
 30
0.0
  0
VERTEX
  5
171
330
16F
100
AcDbEntity
  8
Ritzen
 62
    12
420
 14877971
370
    35
100
AcDbVertex
100
AcDb2dVertex
 10
157.5251033475254
 20
-132.8680338060908
 30
0.0
  0
SEQEND
  5
172
330
16F
100
AcDbEntity
  8
Ritzen
 62
    12
420
 14877971
370
    35
  0
POLYLINE
  5
173
330
1F
100
AcDbEntity
  8
Ritzen
 62
    12
420
 14877971
370
    35
100
AcDb2dPolyline
 66
     1
 10
0.0
 20
0.0
 30
0.0
  0
VERTEX
  5
174
330
173
100
AcDbEntity
  8
Ritzen
 62
    12
420
 14877971
370
    35
100
AcDbVertex
100
AcDb2dVertex
 10
82.78327896011406
 20
-377.5776246976718
 30
0.0
  0
VERTEX
  5
175
330
173
100
AcDbEntity
  8
Ritzen
 62
    12
420
 14877971
370
    35
100
AcDbVertex
100
AcDb2dVertex
 10
131.8980313027356
 20
-226.1777244568672
 30
0.0
  0
VERTEX
  5
176
330
173
100
AcDbEntity
  8
Ritzen
 62
    12
420
 14877971
370
    35
100
AcDbVertex
100
AcDb2dVertex
 10
180.7831665504007
 20
-377.6519660855212
 30
0.0
  0
SEQEND
  5
177
330
173
100
AcDbEntity
  8
Ritzen
 62
    12
420
 14877971
370
    35
  0
POLYLINE
  5
178
330
1F
100
AcDbEntity
  8
Ritzen
 62
    12
420
 14877971
370
    35
100
AcDb2dPolyline
 66
     1
 10
0.0
 20
0.0
 30
0.0
  0
VERTEX
  5
179
330
178
100
AcDbEntity
  8
Ritzen
 62
    12
420
 14877971
370
    35
100
AcDbVertex
100
AcDb2dVertex
 10
260.2507019896991
 20
-320.3053366961056
 30
0.0
  0
VERTEX
  5
17A
330
178
100
AcDbEntity
  8
Ritzen
 62
    12
420
 14877971
370
    35
100
AcDbVertex
100
AcDb2dVertex
 10
131.8980313027356
 20
-226.1777244568672
 30
0.0
  0
SEQEND
  5
17B
330
178
100
AcDbEntity
  8
Ritzen
 62
    12
420
 14877971
370
    35
  0
POLYLINE
  5
17C
330
1F
100
AcDbEntity
  8
Ritzen
 62
    12
420
 14877971
370
    35
100
AcDb2dPolyline
 66
     1
 10
0.0
 20
0.0
 30
0.0
  0
VERTEX
  5
17D
330
17C
100
AcDbEntity
  8
Ritzen
 62
    12
420
 14877971
370
    35
100
AcDbVertex
100
AcDb2dVertex
 10
295.7115014112937
 20
-217.7300042326607
 30
0.0
  0
VERTEX
  5
17E
330
17C
100
AcDbEntity
  8
Ritzen
 62
    12
420
 14877971
370
    35
100
AcDbVertex
100
AcDb2dVertex
 10
143.9509784096404
 20
-169.7459094240007
 30
0.0
  0
VERTEX
  5
17F
330
17C
100
AcDbEntity
  8
Ritzen
 62
    12
420
 14877971
370
    35
100
AcDbVertex
100
AcDb2dVertex
 10
295.0552181818897
 20
-119.7322872380096
 30
0.0
  0
SEQEND
  5
180
330
17C
100
AcDbEntity
  8
Ritzen
 62
    12
420
 14877971
370
    35
  0
POLYLINE
  5
181
330
1F
100
AcDbEntity
  8
Ritzen
 62
    12
420
 14877971
370
    35
100
AcDb2dPolyline
 66
     1
 10
0.0
 20
0.0
 30
0.0
  0
VERTEX
  5
182
330
181
100
AcDbEntity
  8
Ritzen
 62
    12
420
 14877971
370
    35
100
AcDbVertex
100
AcDb2dVertex
 10
237.1177277484542
 20
-40.69449787629986
 30
0.0
  0
VERTEX
  5
183
330
181
100
AcDbEntity
  8
Ritzen
 62
    12
420
 14877971
370
    35
100
AcDbVertex
100
AcDb2dVertex
 10
143.9509784096404
 20
-169.7459094240007
 30
0.0
  0
SEQEND
  5
184
330
181
100
AcDbEntity
  8
Ritzen
 62
    12
420
 14877971
370
    35
  0
POLYLINE
  5
185
330
1F
100
AcDbEntity
  8
Ritzen
 62
    12
420
 14877971
370
    35
100
AcDb2dPolyline
 66
     1
 10
0.0
 20
0.0
 30
0.0
  0
VERTEX
  5
186
330
185
100
AcDbEntity
  8
Ritzen
 62
    12
420
 14877971
370
    35
100
AcDbVertex
100
AcDb2dVertex
 10
216.8308626768622
 20
78.39563778739371
 30
0.0
  0
VERTEX
  5
187
330
185
100
AcDbEntity
  8
Ritzen
 62
    12
420
 14877971
370
    35
100
AcDbVertex
100
AcDb2dVertex
 10
168.8467678682028
 20
-73.36488521425956
 30
0.0
  0
VERTEX
  5
188
330
185
100
AcDbEntity
  8
Ritzen
 62
    12
420
 14877971
370
    35
100
AcDbVertex
100
AcDb2dVertex
 10
118.8331456822118
 20
77.73935455798974
 30
0.0
  0
SEQEND
  5
189
330
185
100
AcDbEntity
  8
Ritzen
 62
    12
420
 14877971
370
    35
  0
POLYLINE
  5
18A
330
1F
100
AcDbEntity
  8
Ritzen
 62
    12
420
 14877971
370
    35
100
AcDb2dPolyline
 66
     1
 10
0.0
 20
0.0
 30
0.0
  0
VERTEX
  5
18B
330
18A
100
AcDbEntity
  8
Ritzen
 62
    12
420
 14877971
370
    35
100
AcDbVertex
100
AcDb2dVertex
 10
39.79535632050169
 20
19.80186412455429
 30
0.0
  0
VERTEX
  5
18C
330
18A
100
AcDbEntity
  8
Ritzen
 62
    12
420
 14877971
370
    35
100
AcDbVertex
100
AcDb2dVertex
 10
168.8467678682028
 20
-73.36488521425956
 30
0.0
  0
SEQEND
  5
18D
330
18A
100
AcDbEntity
  8
Ritzen
 62
    12
420
 14877971
370
    35
  0
ENDSEC
  0
SECTION
  2
OBJECTS
  0
DICTIONARY
  5
C
330
0
100
AcDbDictionary
281
     1
  3
ACAD_GROUP
350
D
  3
ACAD_LAYOUT
350
1A
  3
ACAD_MATERIAL
350
3B
  3
ACAD_MLEADERSTYLE
350
18F
  3
ACAD_MLINESTYLE
350
17
  3
ACAD_PLOTSETTINGS
350
19
  3
ACAD_PLOTSTYLENAME
350
E
  3
ACAD_TABLESTYLE
350
18E
  3
ACAD_VISUALSTYLE
350
2A
  0
SUN
  5
3F
330
29
100
AcDbSun
 90
        1
290
     0
 63
     7
421
 16777215
 40
1.0
291
     1
 91
  2455826
 92
 54000000
292
     0
 70
     2
 71
   256
280
     1
  0
DICTIONARY
  5
D
102
{ACAD_REACTORS
330
C
102
}
330
C
100
AcDbDictionary
281
     1
  0
DICTIONARY
  5
1A
102
{ACAD_REACTORS
330
C
102
}
330
C
100
AcDbDictionary
281
     1
  3
Layout1
350
1E
  3
Layout2
350
26
  3
Model
350
22
  0
DICTIONARY
  5
3B
102
{ACAD_REACTORS
330
C
102
}
330
C
100
AcDbDictionary
281
     1
  3
ByBlock
350
3D
  3
ByLayer
350
3C
  3
Global
350
3E
  0
DICTIONARY
  5
18F
102
{ACAD_REACTORS
330
C
102
}
330
C
100
AcDbDictionary
281
     1
  0
DICTIONARY
  5
17
102
{ACAD_REACTORS
330
C
102
}
330
C
100
AcDbDictionary
281
     1
  3
Standard
350
18
  0
DICTIONARY
  5
19
102
{ACAD_REACTORS
330
C
102
}
330
C
100
AcDbDictionary
281
     1
  0
ACDBDICTIONARYWDFLT
  5
E
102
{ACAD_REACTORS
330
C
102
}
330
C
100
AcDbDictionary
281
     1
  3
Normal
350
F
100
AcDbDictionaryWithDefault
340
F
  0
DICTIONARY
  5
18E
102
{ACAD_REACTORS
330
C
102
}
330
C
100
AcDbDictionary
281
     1
  0
DICTIONARY
  5
2A
102
{ACAD_REACTORS
330
C
102
}
330
C
100
AcDbDictionary
281
     1
  3
2dWireframe
350
2F
  3
3D Hidden
350
31
  3
3dWireframe
350
30
  3
Basic
350
32
  3
Brighten
350
36
  3
ColorChange
350
3A
  3
Conceptual
350
34
  3
Dim
350
35
  3
Facepattern
350
39
  3
Flat
350
2B
  3
FlatWithEdges
350
2C
  3
Gouraud
350
2D
  3
GouraudWithEdges
350
2E
  3
Linepattern
350
38
  3
Realistic
350
33
  3
Thicken
350
37
  0
LAYOUT
  5
1E
102
{ACAD_REACTORS
330
1A
102
}
330
1A
100
AcDbPlotSettings
  1

  2
none_device
  4

  6

 40
0.0
 41
0.0
 42
0.0
 43
0.0
 44
0.0
 45
0.0
 46
0.0
 47
0.0
 48
0.0
 49
0.0
140
0.0
141
0.0
142
1.0
143
1.0
 70
   688
 72
     0
 73
     0
 74
     5
  7

 75
    16
 76
     0
 77
     2
 78
   300
147
1.0
148
0.0
149
0.0
100
AcDbLayout
  1
Layout1
 70
     1
 71
     1
 10
0.0
 20
0.0
 11
12.0
 21
9.0
 12
0.0
 22
0.0
 32
0.0
 14
1.000000000000000E+20
 24
1.000000000000000E+20
 34
1.000000000000000E+20
 15
-1.000000000000000E+20
 25
-1.000000000000000E+20
 35
-1.000000000000000E+20
146
0.0
 13
0.0
 23
0.0
 33
0.0
 16
1.0
 26
0.0
 36
0.0
 17
0.0
 27
1.0
 37
0.0
 76
     0
330
1B
  0
LAYOUT
  5
26
102
{ACAD_REACTORS
330
1A
102
}
330
1A
100
AcDbPlotSettings
  1

  2
none_device
  4

  6

 40
0.0
 41
0.0
 42
0.0
 43
0.0
 44
0.0
 45
0.0
 46
0.0
 47
0.0
 48
0.0
 49
0.0
140
0.0
141
0.0
142
1.0
143
1.0
 70
   688
 72
     0
 73
     0
 74
     5
  7

 75
    16
 76
     0
 77
     2
 78
   300
147
1.0
148
0.0
149
0.0
100
AcDbLayout
  1
Layout2
 70
     1
 71
     2
 10
0.0
 20
0.0
 11
0.0
 21
0.0
 12
0.0
 22
0.0
 32
0.0
 14
0.0
 24
0.0
 34
0.0
 15
0.0
 25
0.0
 35
0.0
146
0.0
 13
0.0
 23
0.0
 33
0.0
 16
1.0
 26
0.0
 36
0.0
 17
0.0
 27
1.0
 37
0.0
 76
     0
330
23
  0
LAYOUT
  5
22
102
{ACAD_REACTORS
330
1A
102
}
330
1A
100
AcDbPlotSettings
  1

  2
none_device
  4

  6

 40
0.0
 41
0.0
 42
0.0
 43
0.0
 44
0.0
 45
0.0
 46
0.0
 47
0.0
 48
0.0
 49
0.0
140
0.0
141
0.0
142
1.0
143
1.0
 70
  1712
 72
     0
 73
     0
 74
     0
  7

 75
     0
 76
     0
 77
     2
 78
   300
147
1.0
148
0.0
149
0.0
100
AcDbLayout
  1
Model
 70
     1
 71
     0
 10
0.0
 20
0.0
 11
12.0
 21
9.0
 12
0.0
 22
0.0
 32
0.0
 14
1.000000000000000E+20
 24
1.000000000000000E+20
 34
1.000000000000000E+20
 15
-1.000000000000000E+20
 25
-1.000000000000000E+20
 35
-1.000000000000000E+20
146
0.0
 13
0.0
 23
0.0
 33
0.0
 16
1.0
 26
0.0
 36
0.0
 17
0.0
 27
1.0
 37
0.0
 76
     0
330
1F
331
29
  0
MATERIAL
  5
3D
102
{ACAD_REACTORS
330
3B
102
}
330
3B
100
AcDbMaterial
  1
ByBlock
 72
     1
 94
      127
  0
MATERIAL
  5
3C
102
{ACAD_REACTORS
330
3B
102
}
330
3B
100
AcDbMaterial
  1
ByLayer
 72
     1
 94
      127
  0
MATERIAL
  5
3E
102
{ACAD_REACTORS
330
3B
102
}
330
3B
100
AcDbMaterial
  1
Global
 72
     1
 94
      127
  0
MLINESTYLE
  5
18
102
{ACAD_REACTORS
330
17
102
}
330
17
100
AcDbMlineStyle
  2
Standard
 70
     0
  3

 62
   256
 51
90.0
 52
90.0
 71
     2
 49
0.5
 62
   256
  6
BYLAYER
 49
-0.5
 62
   256
  6
BYLAYER
  0
ACDBPLACEHOLDER
  5
F
102
{ACAD_REACTORS
330
E
102
}
330
E
  0
VISUALSTYLE
  5
2F
102
{ACAD_REACTORS
330
2A
102
}
330
2A
100
AcDbVisualStyle
  2
2dWireframe
 70
     4
177
     2
291
     0
 71
     0
176
     1
 72
     2
176
     1
 73
     0
176
     1
 90
        0
176
     1
 40
-0.6
176
     1
 41
-30.0
176
     1
 62
     5
 63
     7
421
 16777215
176
     1
 74
     1
176
     1
 91
        4
176
     1
 64
     7
176
     1
 65
   257
176
     1
 75
     1
176
     1
175
     1
176
     1
 42
1.0
176
     1
 92
        0
176
     1
 66
   257
176
     1
 43
1.0
176
     1
 76
     1
176
     1
 77
     6
176
     1
 78
     2
176
     1
 67
     7
176
     1
 79
     5
176
     1
170
     0
176
     1
171
     0
176
     1
290
     0
176
     1
 93
        1
176
     1
 44
0.0
176
     1
173
     0
176
     1
  0
VISUALSTYLE
  5
31
102
{ACAD_REACTORS
330
2A
102
}
330
2A
100
AcDbVisualStyle
  2
3D Hidden
 70
     6
177
     2
291
     0
 71
     1
176
     1
 72
     2
176
     1
 73
     2
176
     1
 90
        0
176
     1
 40
-0.6
176
     1
 41
-30.0
176
     1
 62
     5
 63
     7
421
 16777215
176
     1
 74
     2
176
     1
 91
        2
176
     1
 64
     7
176
     1
 65
   257
176
     1
 75
     2
176
     1
175
     1
176
     1
 42
40.0
176
     1
 92
        0
176
     1
 66
   257
176
     1
 43
1.0
176
     1
 76
     1
176
     1
 77
     6
176
     1
 78
     2
176
     1
 67
     7
176
     1
 79
     3
176
     1
170
     0
176
     1
171
     0
176
     1
290
     0
176
     1
 93
        1
176
     1
 44
0.0
176
     1
173
     0
176
     1
  0
VISUALSTYLE
  5
30
102
{ACAD_REACTORS
330
2A
102
}
330
2A
100
AcDbVisualStyle
  2
3dWireframe
 70
     5
177
     2
291
     0
 71
     0
176
     1
 72
     2
176
     1
 73
     0
176
     1
 90
        0
176
     1
 40
-0.6
176
     1
 41
-30.0
176
     1
 62
     5
 63
     7
421
 16777215
176
     1
 74
     1
176
     1
 91
        4
176
     1
 64
     7
176
     1
 65
   257
176
     1
 75
     1
176
     1
175
     1
176
     1
 42
1.0
176
     1
 92
        0
176
     1
 66
   257
176
     1
 43
1.0
176
     1
 76
     1
176
     1
 77
     6
176
     1
 78
     2
176
     1
 67
     7
176
     1
 79
     5
176
     1
170
     0
176
     1
171
     0
176
     1
290
     0
176
     1
 93
        1
176
     1
 44
0.0
176
     1
173
     0
176
     1
  0
VISUALSTYLE
  5
32
102
{ACAD_REACTORS
330
2A
102
}
330
2A
100
AcDbVisualStyle
  2
Basic
 70
     7
177
     2
291
     1
 71
     1
176
     1
 72
     0
176
     1
 73
     1
176
     1
 90
        0
176
     1
 40
-0.6
176
     1
 41
-30.0
176
     1
 62
     5
 63
     7
421
 16777215
176
     1
 74
     0
176
     1
 91
        4
176
     1
 64
     7
176
     1
 65
   257
176
     1
 75
     1
176
     1
175
     1
176
     1
 42
1.0
176
     1
 92
        8
176
     1
 66
     7
176
     1
 43
1.0
176
     1
 76
     1
176
     1
 77
     6
176
     1
 78
     2
176
     1
 67
     7
176
     1
 79
     5
176
     1
170
     0
176
     1
171
     0
176
     1
290
     0
176
     1
 93
        1
176
     1
 44
0.0
176
     1
173
     0
176
     1
  0
VISUALSTYLE
  5
36
102
{ACAD_REACTORS
330
2A
102
}
330
2A
100
AcDbVisualStyle
  2
Brighten
 70
    12
177
     2
291
     1
 71
     2
176
     1
 72
     2
176
     1
 73
     0
176
     1
 90
        0
176
     1
 40
-0.6
176
     1
 41
-30.0
176
     1
 62
     5
 63
     7
421
 16777215
176
     1
 74
     1
176
     1
 91
        4
176
     1
 64
     7
176
     1
 65
   257
176
     1
 75
     1
176
     1
175
     1
176
     1
 42
1.0
176
     1
 92
        8
176
     1
 66
     7
176
     1
 43
1.0
176
     1
 76
     1
176
     1
 77
     6
176
     1
 78
     2
176
     1
 67
     7
176
     1
 79
     5
176
     1
170
     0
176
     1
171
     0
176
     1
290
     0
176
     1
 93
        1
176
     1
 44
50.0
176
     1
173
     0
176
     1
  0
VISUALSTYLE
  5
3A
102
{ACAD_REACTORS
330
2A
102
}
330
2A
100
AcDbVisualStyle
  2
ColorChange
 70
    16
177
     2
291
     1
 71
     2
176
     1
 72
     2
176
     1
 73
     3
176
     1
 90
        0
176
     1
 40
-0.6
176
     1
 41
-30.0
176
     1
 62
     5
 63
     8
421
  8421504
176
     1
 74
     1
176
     1
 91
        4
176
     1
 64
     7
176
     1
 65
   257
176
     1
 75
     1
176
     1
175
     1
176
     1
 42
1.0
176
     1
 92
        8
176
     1
 66
     8
424
  8421504
176
     1
 43
1.0
176
     1
 76
     1
176
     1
 77
     6
176
     1
 78
     2
176
     1
 67
     7
176
     1
 79
     5
176
     1
170
     0
176
     1
171
     0
176
     1
290
     0
176
     1
 93
        1
176
     1
 44
0.0
176
     1
173
     0
176
     1
  0
VISUALSTYLE
  5
34
102
{ACAD_REACTORS
330
2A
102
}
330
2A
100
AcDbVisualStyle
  2
Conceptual
 70
     9
177
     2
291
     0
 71
     3
176
     1
 72
     2
176
     1
 73
     0
176
     1
 90
        0
176
     1
 40
-0.6
176
     1
 41
-30.0
176
     1
 62
     5
 63
     7
421
 16777215
176
     1
 74
     2
176
     1
 91
        2
176
     1
 64
     7
176
     1
 65
   257
176
     1
 75
     1
176
     1
175
     1
176
     1
 42
40.0
176
     1
 92
        8
176
     1
 66
     7
176
     1
 43
1.0
176
     1
 76
     1
176
     1
 77
     6
176
     1
 78
     2
176
     1
 67
     7
176
     1
 79
     3
176
     1
170
     0
176
     1
171
     0
176
     1
290
     0
176
     1
 93
        1
176
     1
 44
0.0
176
     1
173
     0
176
     1
  0
VISUALSTYLE
  5
35
102
{ACAD_REACTORS
330
2A
102
}
330
2A
100
AcDbVisualStyle
  2
Dim
 70
    11
177
     2
291
     1
 71
     2
176
     1
 72
     2
176
     1
 73
     0
176
     1
 90
        0
176
     1
 40
-0.6
176
     1
 41
-30.0
176
     1
 62
     5
 63
     7
421
 16777215
176
     1
 74
     1
176
     1
 91
        4
176
     1
 64
     7
176
     1
 65
   257
176
     1
 75
     1
176
     1
175
     1
176
     1
 42
1.0
176
     1
 92
        8
176
     1
 66
     7
176
     1
 43
1.0
176
     1
 76
     1
176
     1
 77
     6
176
     1
 78
     2
176
     1
 67
     7
176
     1
 79
     5
176
     1
170
     0
176
     1
171
     0
176
     1
290
     0
176
     1
 93
        1
176
     1
 44
-50.0
176
     1
173
     0
176
     1
  0
VISUALSTYLE
  5
39
102
{ACAD_REACTORS
330
2A
102
}
330
2A
100
AcDbVisualStyle
  2
Facepattern
 70
    15
177
     2
291
     1
 71
     2
176
     1
 72
     2
176
     1
 73
     0
176
     1
 90
        0
176
     1
 40
-0.6
176
     1
 41
-30.0
176
     1
 62
     5
 63
     7
421
 16777215
176
     1
 74
     1
176
     1
 91
        4
176
     1
 64
     7
176
     1
 65
   257
176
     1
 75
     1
176
     1
175
     1
176
     1
 42
1.0
176
     1
 92
        8
176
     1
 66
     7
176
     1
 43
1.0
176
     1
 76
     1
176
     1
 77
     6
176
     1
 78
     2
176
     1
 67
     7
176
     1
 79
     5
176
     1
170
     0
176
     1
171
     0
176
     1
290
     0
176
     1
 93
        1
176
     1
 44
0.0
176
     1
173
     0
176
     1
  0
VISUALSTYLE
  5
2B
102
{ACAD_REACTORS
330
2A
102
}
330
2A
100
AcDbVisualStyle
  2
Flat
 70
     0
177
     2
291
     1
 71
     2
176
     1
 72
     1
176
     1
 73
     1
176
     1
 90
        2
176
     1
 40
-0.6
176
     1
 41
30.0
176
     1
 62
     5
 63
     7
421
 16777215
176
     1
 74
     0
176
     1
 91
        4
176
     1
 64
     7
176
     1
 65
   257
176
     1
 75
     1
176
     1
175
     1
176
     1
 42
1.0
176
     1
 92
        8
176
     1
 66
     7
176
     1
 43
1.0
176
     1
 76
     1
176
     1
 77
     6
176
     1
 78
     2
176
     1
 67
     7
176
     1
 79
     5
176
     1
170
     0
176
     1
171
     0
176
     1
290
     0
176
     1
 93
       13
176
     1
 44
0.0
176
     1
173
     0
176
     1
  0
VISUALSTYLE
  5
2C
102
{ACAD_REACTORS
330
2A
102
}
330
2A
100
AcDbVisualStyle
  2
FlatWithEdges
 70
     1
177
     2
291
     1
 71
     2
176
     1
 72
     1
176
     1
 73
     1
176
     1
 90
        2
176
     1
 40
-0.6
176
     1
 41
30.0
176
     1
 62
     5
 63
     7
421
 16777215
176
     1
 74
     1
176
     1
 91
        4
176
     1
 64
     7
176
     1
 65
   257
176
     1
 75
     1
176
     1
175
     1
176
     1
 42
1.0
176
     1
 92
        0
176
     1
 66
   257
176
     1
 43
1.0
176
     1
 76
     1
176
     1
 77
     6
176
     1
 78
     2
176
     1
 67
     7
176
     1
 79
     5
176
     1
170
     0
176
     1
171
     0
176
     1
290
     0
176
     1
 93
       13
176
     1
 44
0.0
176
     1
173
     0
176
     1
  0
VISUALSTYLE
  5
2D
102
{ACAD_REACTORS
330
2A
102
}
330
2A
100
AcDbVisualStyle
  2
Gouraud
 70
     2
177
     2
291
     1
 71
     2
176
     1
 72
     2
176
     1
 73
     1
176
     1
 90
        2
176
     1
 40
-0.6
176
     1
 41
30.0
176
     1
 62
     5
 63
     7
421
 16777215
176
     1
 74
     0
176
     1
 91
        4
176
     1
 64
     7
176
     1
 65
   257
176
     1
 75
     1
176
     1
175
     1
176
     1
 42
1.0
176
     1
 92
        0
176
     1
 66
     7
176
     1
 43
1.0
176
     1
 76
     1
176
     1
 77
     6
176
     1
 78
     2
176
     1
 67
     7
176
     1
 79
     5
176
     1
170
     0
176
     1
171
     0
176
     1
290
     0
176
     1
 93
       13
176
     1
 44
0.0
176
     1
173
     0
176
     1
  0
VISUALSTYLE
  5
2E
102
{ACAD_REACTORS
330
2A
102
}
330
2A
100
AcDbVisualStyle
  2
GouraudWithEdges
 70
     3
177
     2
291
     1
 71
     2
176
     1
 72
     2
176
     1
 73
     1
176
     1
 90
        2
176
     1
 40
-0.6
176
     1
 41
30.0
176
     1
 62
     5
 63
     7
421
 16777215
176
     1
 74
     1
176
     1
 91
        4
176
     1
 64
     7
176
     1
 65
   257
176
     1
 75
     1
176
     1
175
     1
176
     1
 42
1.0
176
     1
 92
        0
176
     1
 66
   257
176
     1
 43
1.0
176
     1
 76
     1
176
     1
 77
     6
176
     1
 78
     2
176
     1
 67
     7
176
     1
 79
     5
176
     1
170
     0
176
     1
171
     0
176
     1
290
     0
176
     1
 93
       13
176
     1
 44
0.0
176
     1
173
     0
176
     1
  0
VISUALSTYLE
  5
38
102
{ACAD_REACTORS
330
2A
102
}
330
2A
100
AcDbVisualStyle
  2
Linepattern
 70
    14
177
     2
291
     1
 71
     2
176
     1
 72
     2
176
     1
 73
     0
176
     1
 90
        0
176
     1
 40
-0.6
176
     1
 41
-30.0
176
     1
 62
     5
 63
     7
421
 16777215
176
     1
 74
     1
176
     1
 91
        4
176
     1
 64
     7
176
     1
 65
   257
176
     1
 75
     7
176
     1
175
     7
176
     1
 42
1.0
176
     1
 92
        8
176
     1
 66
     7
176
     1
 43
1.0
176
     1
 76
     1
176
     1
 77
     6
176
     1
 78
     2
176
     1
 67
     7
176
     1
 79
     5
176
     1
170
     0
176
     1
171
     0
176
     1
290
     0
176
     1
 93
        1
176
     1
 44
0.0
176
     1
173
     0
176
     1
  0
VISUALSTYLE
  5
33
102
{ACAD_REACTORS
330
2A
102
}
330
2A
100
AcDbVisualStyle
  2
Realistic
 70
     8
177
     2
291
     0
 71
     2
176
     1
 72
     2
176
     1
 73
     0
176
     1
 90
        0
176
     1
 40
-0.6
176
     1
 41
-30.0
176
     1
 62
     5
 63
     7
421
 16777215
176
     1
 74
     1
176
     1
 91
        0
176
     1
 64
     7
176
     1
 65
   257
176
     1
 75
     1
176
     1
175
     1
176
     1
 42
1.0
176
     1
 92
        8
176
     1
 66
     8
424
  7895160
176
     1
 43
1.0
176
     1
 76
     1
176
     1
 77
     6
176
     1
 78
     2
176
     1
 67
     7
176
     1
 79
     5
176
     1
170
     0
176
     1
171
     0
176
     1
290
     0
176
     1
 93
       13
176
     1
 44
0.0
176
     1
173
     0
176
     1
  0
VISUALSTYLE
  5
37
102
{ACAD_REACTORS
330
2A
102
}
330
2A
100
AcDbVisualStyle
  2
Thicken
 70
    13
177
     2
291
     1
 71
     2
176
     1
 72
     2
176
     1
 73
     0
176
     1
 90
        0
176
     1
 40
-0.6
176
     1
 41
-30.0
176
     1
 62
     5
 63
     7
421
 16777215
176
     1
 74
     1
176
     1
 91
        4
176
     1
 64
     7
176
     1
 65
   257
176
     1
 75
     1
176
     1
175
     1
176
     1
 42
1.0
176
     1
 92
       12
176
     1
 66
     7
176
     1
 43
1.0
176
     1
 76
     1
176
     1
 77
     6
176
     1
 78
     2
176
     1
 67
     7
176
     1
 79
     5
176
     1
170
     0
176
     1
171
     0
176
     1
290
     0
176
     1
 93
        1
176
     1
 44
0.0
176
     1
173
     0
176
     1
  0
ENDSEC
  0
EOF
