  0
SECTION
  2
HEADER
  9
$ACADVER
  1
AC1024
  9
$ACADMAINTVER
 70
     6
  9
$DWGCODEPAGE
  3
UNDEFINED
  9
$INSBASE
 10
0.0
 20
0.0
 30
0.0
  9
$EXTMIN
 10
1.000000000000000E+20
 20
1.000000000000000E+20
 30
1.000000000000000E+20
  9
$EXTMAX
 10
-1.000000000000000E+20
 20
-1.000000000000000E+20
 30
-1.000000000000000E+20
  9
$LIMMIN
 10
0.0
 20
0.0
  9
$LIMMAX
 10
12.0
 20
9.0
  9
$ORTHOMODE
 70
     0
  9
$REGENMODE
 70
     1
  9
$FILLMODE
 70
     1
  9
$QTEXTMODE
 70
     0
  9
$MIRRTEXT
 70
     1
  9
$LTSCALE
 40
1.0
  9
$ATTMODE
 70
     1
  9
$TEXTSIZE
 40
0.2
  9
$TRACEWID
 40
0.05
  9
$TEXTSTYLE
  7
Standard
  9
$CLAYER
  8
0
  9
$CELTYPE
  6
ByLayer
  9
$CECOLOR
 62
   256
  9
$CELTSCALE
 40
1.0
  9
$DISPSILH
 70
     0
  9
$DIMSCALE
 40
1.0
  9
$DIMASZ
 40
0.18
  9
$DIMEXO
 40
0.0625
  9
$DIMDLI
 40
0.38
  9
$DIMRND
 40
0.0
  9
$DIMDLE
 40
0.0
  9
$DIMEXE
 40
0.18
  9
$DIMTP
 40
0.0
  9
$DIMTM
 40
0.0
  9
$DIMTXT
 40
0.18
  9
$DIMCEN
 40
0.09
  9
$DIMTSZ
 40
0.0
  9
$DIMTOL
 70
     0
  9
$DIMLIM
 70
     0
  9
$DIMTIH
 70
     1
  9
$DIMTOH
 70
     1
  9
$DIMSE1
 70
     0
  9
$DIMSE2
 70
     0
  9
$DIMTAD
 70
     0
  9
$DIMZIN
 70
     0
  9
$DIMBLK
  1

  9
$DIMASO
 70
     1
  9
$DIMSHO
 70
     1
  9
$DIMPOST
  1

  9
$DIMAPOST
  1

  9
$DIMALT
 70
     0
  9
$DIMALTD
 70
     2
  9
$DIMALTF
 40
25.4
  9
$DIMLFAC
 40
1.0
  9
$DIMTOFL
 70
     0
  9
$DIMTVP
 40
0.0
  9
$DIMTIX
 70
     0
  9
$DIMSOXD
 70
     0
  9
$DIMSAH
 70
     0
  9
$DIMBLK1
  1

  9
$DIMBLK2
  1

  9
$DIMSTYLE
  2
Standard
  9
$DIMCLRD
 70
     0
  9
$DIMCLRE
 70
     0
  9
$DIMCLRT
 70
     0
  9
$DIMTFAC
 40
1.0
  9
$DIMGAP
 40
0.09
  9
$DIMJUST
 70
     0
  9
$DIMSD1
 70
     0
  9
$DIMSD2
 70
     0
  9
$DIMTOLJ
 70
     1
  9
$DIMTZIN
 70
     0
  9
$DIMALTZ
 70
     0
  9
$DIMALTTZ
 70
     0
  9
$DIMUPT
 70
     0
  9
$DIMDEC
 70
     4
  9
$DIMTDEC
 70
     4
  9
$DIMALTU
 70
     2
  9
$DIMALTTD
 70
     2
  9
$DIMTXSTY
  7
Standard
  9
$DIMAUNIT
 70
     0
  9
$DIMADEC
 70
     0
  9
$DIMALTRND
 40
0.0
  9
$DIMAZIN
 70
     0
  9
$DIMDSEP
 70
    46
  9
$DIMATFIT
 70
     3
  9
$DIMFRAC
 70
     0
  9
$DIMLDRBLK
  1

  9
$DIMLUNIT
 70
     2
  9
$DIMLWD
 70
    -2
  9
$DIMLWE
 70
    -2
  9
$DIMTMOVE
 70
     0
  9
$DIMFXL
 40
1.0
  9
$DIMFXLON
 70
     0
  9
$DIMJOGANG
 40
0.7853981633974483
  9
$DIMTFILL
 70
     0
  9
$DIMTFILLCLR
 70
     0
  9
$DIMARCSYM
 70
     0
  9
$DIMLTYPE
  6

  9
$DIMLTEX1
  6

  9
$DIMLTEX2
  6

  9
$DIMTXTDIRECTION
 70
     0
  9
$LUNITS
 70
     2
  9
$LUPREC
 70
     4
  9
$SKETCHINC
 40
0.1
  9
$FILLETRAD
 40
0.5
  9
$AUNITS
 70
     0
  9
$AUPREC
 70
     0
  9
$MENU
  1
.
  9
$ELEVATION
 40
0.0
  9
$PELEVATION
 40
0.0
  9
$THICKNESS
 40
0.0
  9
$LIMCHECK
 70
     0
  9
$CHAMFERA
 40
0.5
  9
$CHAMFERB
 40
0.5
  9
$CHAMFERC
 40
1.0
  9
$CHAMFERD
 40
0.0
  9
$SKPOLY
 70
     0
  9
$TDCREATE
 40
2458101.922685174
  9
$TDUCREATE
 40
2458101.881018518
  9
$TDUPDATE
 40
2458101.922685174
  9
$TDUUPDATE
 40
2458101.881018518
  9
$TDINDWG
 40
0.0000000116
  9
$TDUSRTIMER
 40
0.0000000116
  9
$USRTIMER
 70
     1
  9
$ANGBASE
 50
0.0
  9
$ANGDIR
 70
     0
  9
$PDMODE
 70
     0
  9
$PDSIZE
 40
0.0
  9
$PLINEWID
 40
0.0
  9
$SPLFRAME
 70
     0
  9
$SPLINETYPE
 70
     6
  9
$SPLINESEGS
 70
     8
  9
$HANDSEED
  5
AE
  9
$SURFTAB1
 70
     6
  9
$SURFTAB2
 70
     6
  9
$SURFTYPE
 70
     6
  9
$SURFU
 70
     6
  9
$SURFV
 70
     6
  9
$UCSBASE
  2

  9
$UCSNAME
  2

  9
$UCSORG
 10
0.0
 20
0.0
 30
0.0
  9
$UCSXDIR
 10
1.0
 20
0.0
 30
0.0
  9
$UCSYDIR
 10
0.0
 20
1.0
 30
0.0
  9
$UCSORTHOREF
  2

  9
$UCSORTHOVIEW
 70
     0
  9
$UCSORGTOP
 10
0.0
 20
0.0
 30
0.0
  9
$UCSORGBOTTOM
 10
0.0
 20
0.0
 30
0.0
  9
$UCSORGLEFT
 10
0.0
 20
0.0
 30
0.0
  9
$UCSORGRIGHT
 10
0.0
 20
0.0
 30
0.0
  9
$UCSORGFRONT
 10
0.0
 20
0.0
 30
0.0
  9
$UCSORGBACK
 10
0.0
 20
0.0
 30
0.0
  9
$PUCSBASE
  2

  9
$PUCSNAME
  2

  9
$PUCSORG
 10
0.0
 20
0.0
 30
0.0
  9
$PUCSXDIR
 10
1.0
 20
0.0
 30
0.0
  9
$PUCSYDIR
 10
0.0
 20
1.0
 30
0.0
  9
$PUCSORTHOREF
  2

  9
$PUCSORTHOVIEW
 70
     0
  9
$PUCSORGTOP
 10
0.0
 20
0.0
 30
0.0
  9
$PUCSORGBOTTOM
 10
0.0
 20
0.0
 30
0.0
  9
$PUCSORGLEFT
 10
0.0
 20
0.0
 30
0.0
  9
$PUCSORGRIGHT
 10
0.0
 20
0.0
 30
0.0
  9
$PUCSORGFRONT
 10
0.0
 20
0.0
 30
0.0
  9
$PUCSORGBACK
 10
0.0
 20
0.0
 30
0.0
  9
$USERI1
 70
     0
  9
$USERI2
 70
     0
  9
$USERI3
 70
     0
  9
$USERI4
 70
     0
  9
$USERI5
 70
     0
  9
$USERR1
 40
0.0
  9
$USERR2
 40
0.0
  9
$USERR3
 40
0.0
  9
$USERR4
 40
0.0
  9
$USERR5
 40
0.0
  9
$WORLDVIEW
 70
     1
  9
$SHADEDGE
 70
     3
  9
$SHADEDIF
 70
    70
  9
$TILEMODE
 70
     1
  9
$MAXACTVP
 70
    64
  9
$PINSBASE
 10
0.0
 20
0.0
 30
0.0
  9
$PLIMCHECK
 70
     0
  9
$PEXTMIN
 10
1.000000000000000E+20
 20
1.000000000000000E+20
 30
1.000000000000000E+20
  9
$PEXTMAX
 10
-1.000000000000000E+20
 20
-1.000000000000000E+20
 30
-1.000000000000000E+20
  9
$PLIMMIN
 10
0.0
 20
0.0
  9
$PLIMMAX
 10
12.0
 20
9.0
  9
$UNITMODE
 70
     0
  9
$VISRETAIN
 70
     1
  9
$PLINEGEN
 70
     0
  9
$PSLTSCALE
 70
     1
  9
$TREEDEPTH
 70
  3020
  9
$CMLSTYLE
  2
Standard
  9
$CMLJUST
 70
     0
  9
$CMLSCALE
 40
1.0
  9
$PROXYGRAPHICS
 70
     1
  9
$MEASUREMENT
 70
     0
  9
$CELWEIGHT
370
    -1
  9
$ENDCAPS
280
     0
  9
$JOINSTYLE
280
     0
  9
$LWDISPLAY
290
     1
  9
$INSUNITS
 70
     1
  9
$HYPERLINKBASE
  1

  9
$STYLESHEET
  1

  9
$XEDIT
290
     1
  9
$CEPSNTYPE
380
     0
  9
$PSTYLEMODE
290
     1
  9
$FINGERPRINTGUID
  2
{C9C4906F-EAA2-A301-FC36-0FCF08A79839}
  9
$VERSIONGUID
  2
{FAEB1C32-E019-11D5-929B-00C0DF256EC4}
  9
$EXTNAMES
290
     1
  9
$PSVPSCALE
 40
0.0
  9
$OLESTARTUP
290
     0
  9
$SORTENTS
280
   127
  9
$INDEXCTL
280
     0
  9
$HIDETEXT
280
     1
  9
$XCLIPFRAME
280
     2
  9
$HALOGAP
280
     0
  9
$OBSCOLOR
 70
   257
  9
$OBSLTYPE
280
     0
  9
$INTERSECTIONDISPLAY
280
     0
  9
$INTERSECTIONCOLOR
 70
   257
  9
$DIMASSOC
280
     2
  9
$PROJECTNAME
  1

  9
$CAMERADISPLAY
290
     0
  9
$LENSLENGTH
 40
50.0
  9
$CAMERAHEIGHT
 40
0.0
  9
$STEPSPERSEC
 40
2.0
  9
$STEPSIZE
 40
6.0
  9
$3DDWFPREC
 40
2.0
  9
$PSOLWIDTH
 40
0.25
  9
$PSOLHEIGHT
 40
4.0
  9
$LOFTANG1
 40
1.570796326794897
  9
$LOFTANG2
 40
1.570796326794897
  9
$LOFTMAG1
 40
0.0
  9
$LOFTMAG2
 40
0.0
  9
$LOFTPARAM
 70
     7
  9
$LOFTNORMALS
280
     1
  9
$LATITUDE
 40
37.795
  9
$LONGITUDE
 40
-122.394
  9
$NORTHDIRECTION
 40
0.0
  9
$TIMEZONE
 70
 -8000
  9
$LIGHTGLYPHDISPLAY
280
     1
  9
$TILEMODELIGHTSYNCH
280
     1
  9
$CMATERIAL
347
3C
  9
$SOLIDHIST
280
     1
  9
$SHOWHIST
280
     1
  9
$DWFFRAME
280
     2
  9
$DGNFRAME
280
     2
  9
$REALWORLDSCALE
290
     1
  9
$INTERFERECOLOR
 62
   256
  9
$CSHADOW
280
     0
  9
$SHADOWPLANELOCATION
 40
0.0
  0
ENDSEC
  0
SECTION
  2
CLASSES
  0
CLASS
  1
ACDBDICTIONARYWDFLT
  2
AcDbDictionaryWithDefault
  3
ObjectDBX Classes
 90
        0
 91
        4
280
     0
281
     0
  0
CLASS
  1
VISUALSTYLE
  2
AcDbVisualStyle
  3
ObjectDBX Classes
 90
     4095
 91
        4
280
     0
281
     0
  0
CLASS
  1
MATERIAL
  2
AcDbMaterial
  3
ObjectDBX Classes
 90
     1153
 91
        4
280
     0
281
     0
  0
CLASS
  1
SUN
  2
AcDbSun
  3
SCENEOE
 90
     1024
 91
        4
280
     0
281
     0
  0
ENDSEC
  0
SECTION
  2
TABLES
  0
TABLE
  2
VPORT
  5
8
330
0
100
AcDbSymbolTable
 70
     1
  0
VPORT
  5
29
330
8
100
AcDbSymbolTableRecord
100
AcDbViewportTableRecord
  2
*Active
 70
     0
 10
0.0
 20
0.0
 11
1.0
 21
1.0
 12
0.0
 22
0.0
 13
0.0
 23
0.0
 14
0.5
 24
0.5
 15
0.5
 25
0.5
 16
0.0
 26
0.0
 36
1.0
 17
606.9541665149281
 27
8.095898119735999
 37
0.0
 40
150.3193148300114
 41
1.997174409378677
 42
50.0
 43
0.0
 44
0.0
 50
0.0
 51
0.0
 71
     0
 72
   100
 73
     1
 74
     3
 75
     0
 76
     0
 77
     0
 78
     0
281
     0
 65
     1
110
0.0
120
0.0
130
0.0
111
1.0
121
0.0
131
0.0
112
0.0
122
1.0
132
0.0
 79
     0
146
0.0
 60
     3
 61
     5
292
     1
282
     1
141
0.0
142
0.0
 63
   250
361
3F
  0
ENDTAB
  0
TABLE
  2
LTYPE
  5
5
330
0
100
AcDbSymbolTable
 70
     1
  0
LTYPE
  5
14
330
5
100
AcDbSymbolTableRecord
100
AcDbLinetypeTableRecord
  2
ByBlock
 70
     0
  3

 72
    65
 73
     0
 40
0.0
  0
LTYPE
  5
15
330
5
100
AcDbSymbolTableRecord
100
AcDbLinetypeTableRecord
  2
ByLayer
 70
     0
  3

 72
    65
 73
     0
 40
0.0
  0
LTYPE
  5
16
330
5
100
AcDbSymbolTableRecord
100
AcDbLinetypeTableRecord
  2
Continuous
 70
     0
  3
Solid line
 72
    65
 73
     0
 40
0.0
  0
ENDTAB
  0
TABLE
  2
LAYER
  5
2
330
0
100
AcDbSymbolTable
 70
     3
  0
LAYER
  5
10
330
2
100
AcDbSymbolTableRecord
100
AcDbLayerTableRecord
  2
0
 70
     0
 62
     7
  6
Continuous
370
    -3
390
F
347
3E
  0
LAYER
  5
40
330
2
100
AcDbSymbolTableRecord
100
AcDbLayerTableRecord
  2
Cut
 70
     0
 62
     7
  6
Continuous
370
    -3
390
F
347
3E
  0
LAYER
  5
93
330
2
100
AcDbSymbolTableRecord
100
AcDbLayerTableRecord
  2
Ritzen
 70
     0
 62
     7
  6
Continuous
370
    -3
390
F
347
3E
  0
ENDTAB
  0
TABLE
  2
STYLE
  5
3
330
0
100
AcDbSymbolTable
 70
     1
  0
STYLE
  5
11
330
3
100
AcDbSymbolTableRecord
100
AcDbTextStyleTableRecord
  2
Standard
 70
     0
 40
0.0
 41
1.0
 50
0.0
 71
     0
 42
0.2
  3
txt
  4

  0
ENDTAB
  0
TABLE
  2
VIEW
  5
6
330
0
100
AcDbSymbolTable
 70
     0
  0
ENDTAB
  0
TABLE
  2
UCS
  5
7
330
0
100
AcDbSymbolTable
 70
     0
  0
ENDTAB
  0
TABLE
  2
APPID
  5
9
330
0
100
AcDbSymbolTable
 70
     1
  0
APPID
  5
12
330
9
100
AcDbSymbolTableRecord
100
AcDbRegAppTableRecord
  2
ACAD
 70
     0
  0
ENDTAB
  0
TABLE
  2
DIMSTYLE
  5
A
330
0
100
AcDbSymbolTable
 70
     1
100
AcDbDimStyleTable
  0
DIMSTYLE
105
27
330
A
100
AcDbSymbolTableRecord
100
AcDbDimStyleTableRecord
  2
Standard
 70
     0
178
     0
340
11
  0
ENDTAB
  0
TABLE
  2
BLOCK_RECORD
  5
1
330
0
100
AcDbSymbolTable
 70
     1
  0
BLOCK_RECORD
  5
1F
330
1
100
AcDbSymbolTableRecord
100
AcDbBlockTableRecord
  2
*Model_Space
340
22
 70
     0
280
     1
281
     0
  0
BLOCK_RECORD
  5
1B
330
1
100
AcDbSymbolTableRecord
100
AcDbBlockTableRecord
  2
*Paper_Space
340
1E
 70
     0
280
     1
281
     0
  0
BLOCK_RECORD
  5
23
330
1
100
AcDbSymbolTableRecord
100
AcDbBlockTableRecord
  2
*Paper_Space0
340
26
 70
     0
280
     1
281
     0
  0
ENDTAB
  0
ENDSEC
  0
SECTION
  2
BLOCKS
  0
BLOCK
  5
20
330
1F
100
AcDbEntity
  8
0
100
AcDbBlockBegin
  2
*Model_Space
 70
     0
 10
0.0
 20
0.0
 30
0.0
  3
*Model_Space
  1

  0
ENDBLK
  5
21
330
1F
100
AcDbEntity
  8
0
100
AcDbBlockEnd
  0
BLOCK
  5
1C
330
1B
100
AcDbEntity
 67
     1
  8
0
100
AcDbBlockBegin
  2
*Paper_Space
 70
     0
 10
0.0
 20
0.0
 30
0.0
  3
*Paper_Space
  1

  0
ENDBLK
  5
1D
330
1B
100
AcDbEntity
 67
     1
  8
0
100
AcDbBlockEnd
  0
BLOCK
  5
24
330
23
100
AcDbEntity
  8
0
100
AcDbBlockBegin
  2
*Paper_Space0
 70
     0
 10
0.0
 20
0.0
 30
0.0
  3
*Paper_Space0
  1

  0
ENDBLK
  5
25
330
23
100
AcDbEntity
  8
0
100
AcDbBlockEnd
  0
ENDSEC
  0
SECTION
  2
ENTITIES
  0
POLYLINE
  5
41
330
1F
100
AcDbEntity
  8
Cut
 62
   179
420
  1842203
370
     9
100
AcDb2dPolyline
 66
     1
 10
0.0
 20
0.0
 30
0.0
  0
VERTEX
  5
42
330
41
100
AcDbEntity
  8
Cut
 62
   179
420
  1842203
370
     9
100
AcDbVertex
100
AcDb2dVertex
 10
606.5498847298048
 20
-51.37256706900695
 30
0.0
  0
VERTEX
  5
43
330
41
100
AcDbEntity
  8
Cut
 62
   179
420
  1842203
370
     9
100
AcDbVertex
100
AcDb2dVertex
 10
606.550424284694
 20
-51.36735010697558
 30
0.0
  0
VERTEX
  5
44
330
41
100
AcDbEntity
  8
Cut
 62
   179
420
  1842203
370
     9
100
AcDbVertex
100
AcDb2dVertex
 10
610.2735850182398
 20
-49.37892519634696
 30
0.0
  0
VERTEX
  5
45
330
41
100
AcDbEntity
  8
Cut
 62
   179
420
  1842203
370
     9
100
AcDbVertex
100
AcDb2dVertex
 10
600.5760441526963
 20
73.54223099336221
 30
0.0
  0
VERTEX
  5
46
330
41
100
AcDbEntity
  8
Cut
 62
   179
420
  1842203
370
     9
100
AcDbVertex
100
AcDb2dVertex
 10
595.88168107778
 20
80.57165097216703
 30
0.0
  0
VERTEX
  5
47
330
41
100
AcDbEntity
  8
Cut
 62
   179
420
  1842203
370
     9
100
AcDbVertex
100
AcDb2dVertex
 10
595.88168107778
 20
80.57165097216703
 30
0.0
  0
VERTEX
  5
48
330
41
100
AcDbEntity
  8
Cut
 62
   179
420
  1842203
370
     9
100
AcDbVertex
100
AcDb2dVertex
 10
595.8816349247169
 20
80.57172093716132
 30
0.0
  0
VERTEX
  5
49
330
41
100
AcDbEntity
  8
Cut
 62
   179
420
  1842203
370
     9
100
AcDbVertex
100
AcDb2dVertex
 10
463.5108198052812
 20
79.93706322035607
 30
0.0
  0
VERTEX
  5
4A
330
41
100
AcDbEntity
  8
Cut
 62
   179
420
  1842203
370
     9
100
AcDbVertex
100
AcDb2dVertex
 10
463.5159163934234
 20
79.91375743948983
 30
0.0
  0
VERTEX
  5
4B
330
41
100
AcDbEntity
  8
Cut
 62
   179
420
  1842203
370
     9
100
AcDbVertex
100
AcDb2dVertex
 10
463.5092201766188
 20
79.93712433651118
 30
0.0
  0
VERTEX
  5
4C
330
41
100
AcDbEntity
  8
Cut
 62
   179
420
  1842203
370
     9
100
AcDbVertex
100
AcDb2dVertex
 10
457.2630290086168
 20
75.18587008187632
 30
0.0
  0
VERTEX
  5
4D
330
41
100
AcDbEntity
  8
Cut
 62
   179
420
  1842203
370
     9
100
AcDbVertex
100
AcDb2dVertex
 10
475.3868113410094
 20
11.98349590112664
 30
0.0
  0
VERTEX
  5
4E
330
41
100
AcDbEntity
  8
Cut
 62
   179
420
  1842203
370
     9
100
AcDbVertex
100
AcDb2dVertex
 10
483.2857582347884
 20
10.96854214468079
 30
0.0
  0
VERTEX
  5
4F
330
41
100
AcDbEntity
  8
Cut
 62
   179
420
  1842203
370
     9
100
AcDbVertex
100
AcDb2dVertex
 10
483.2859615051815
 20
10.96816236945237
 30
0.0
  0
VERTEX
  5
50
330
41
100
AcDbEntity
  8
Cut
 62
   179
420
  1842203
370
     9
100
AcDbVertex
100
AcDb2dVertex
 10
536.1396430007179
 20
-37.55255341068812
 30
0.0
  0
VERTEX
  5
51
330
41
100
AcDbEntity
  8
Cut
 62
   179
420
  1842203
370
     9
100
AcDbVertex
100
AcDb2dVertex
 10
536.1456520776367
 20
-37.54065705336652
 30
0.0
  0
VERTEX
  5
52
330
41
100
AcDbEntity
  8
Cut
 62
   179
420
  1842203
370
     9
100
AcDbVertex
100
AcDb2dVertex
 10
536.145172969735
 20
-37.55368386345572
 30
0.0
  0
VERTEX
  5
53
330
41
100
AcDbEntity
  8
Cut
 62
   179
420
  1842203
370
     9
100
AcDbVertex
100
AcDb2dVertex
 10
536.1396155057853
 20
-37.5525833609538
 30
0.0
  0
VERTEX
  5
54
330
41
100
AcDbEntity
  8
Cut
 62
   179
420
  1842203
370
     9
100
AcDbVertex
100
AcDb2dVertex
 10
537.5232809359414
 20
-45.27753069557273
 30
0.0
  0
VERTEX
  5
55
330
41
100
AcDbEntity
  8
Cut
 62
   179
420
  1842203
370
     9
100
AcDbVertex
100
AcDb2dVertex
 10
602.0421312492543
 20
-57.93965033795046
 30
0.0
  0
VERTEX
  5
56
330
41
100
AcDbEntity
  8
Cut
 62
   179
420
  1842203
370
     9
100
AcDbVertex
100
AcDb2dVertex
 10
606.5436202499236
 20
-51.37175576156331
 30
0.0
  0
VERTEX
  5
57
330
41
100
AcDbEntity
  8
Cut
 62
   179
420
  1842203
370
     9
100
AcDbVertex
100
AcDb2dVertex
 10
606.5498847298048
 20
-51.37256706900695
 30
0.0
  0
SEQEND
  5
58
330
41
100
AcDbEntity
  8
Cut
 62
   179
420
  1842203
370
     9
  0
POLYLINE
  5
59
330
1F
100
AcDbEntity
  8
Cut
 62
   179
420
  1842203
370
     9
100
AcDb2dPolyline
 66
     1
 10
0.0
 20
0.0
 30
0.0
  0
VERTEX
  5
5A
330
59
100
AcDbEntity
  8
Cut
 62
   179
420
  1842203
370
     9
100
AcDbVertex
100
AcDb2dVertex
 10
472.5239305959039
 20
73.1788548977098
 30
0.0
  0
VERTEX
  5
5B
330
59
100
AcDbEntity
  8
Cut
 62
   179
420
  1842203
370
     9
100
AcDbVertex
100
AcDb2dVertex
 10
487.3485983001219
 20
21.47550064434853
 30
0.0
  0
VERTEX
  5
5C
330
59
100
AcDbEntity
  8
Cut
 62
   179
420
  1842203
370
     9
100
AcDbVertex
100
AcDb2dVertex
 10
571.7573056298851
 20
73.65462369820817
 30
0.0
  0
VERTEX
  5
5D
330
59
100
AcDbEntity
  8
Cut
 62
   179
420
  1842203
370
     9
100
AcDbVertex
100
AcDb2dVertex
 10
472.5239305959039
 20
73.1788548977098
 30
0.0
  0
SEQEND
  5
5E
330
59
100
AcDbEntity
  8
Cut
 62
   179
420
  1842203
370
     9
  0
POLYLINE
  5
5F
330
1F
100
AcDbEntity
  8
Cut
 62
   179
420
  1842203
370
     9
100
AcDb2dPolyline
 66
     1
 10
0.0
 20
0.0
 30
0.0
  0
VERTEX
  5
60
330
5F
100
AcDbEntity
  8
Cut
 62
   179
420
  1842203
370
     9
100
AcDbVertex
100
AcDb2dVertex
 10
494.501115731706
 20
9.905078290544932
 30
0.0
  0
VERTEX
  5
61
330
5F
100
AcDbEntity
  8
Cut
 62
   179
420
  1842203
370
     9
100
AcDbVertex
100
AcDb2dVertex
 10
534.1234751700589
 20
-26.46902444833889
 30
0.0
  0
VERTEX
  5
62
330
5F
100
AcDbEntity
  8
Cut
 62
   179
420
  1842203
370
     9
100
AcDbVertex
100
AcDb2dVertex
 10
578.909823061466
 20
62.08420134440522
 30
0.0
  0
VERTEX
  5
63
330
5F
100
AcDbEntity
  8
Cut
 62
   179
420
  1842203
370
     9
100
AcDbVertex
100
AcDb2dVertex
 10
494.501115731706
 20
9.905078290544932
 30
0.0
  0
SEQEND
  5
64
330
5F
100
AcDbEntity
  8
Cut
 62
   179
420
  1842203
370
     9
  0
POLYLINE
  5
65
330
1F
100
AcDbEntity
  8
Cut
 62
   179
420
  1842203
370
     9
100
AcDb2dPolyline
 66
     1
 10
0.0
 20
0.0
 30
0.0
  0
VERTEX
  5
66
330
65
100
AcDbEntity
  8
Cut
 62
   179
420
  1842203
370
     9
100
AcDbVertex
100
AcDb2dVertex
 10
591.0025961181914
 20
56.13179377938326
 30
0.0
  0
VERTEX
  5
67
330
65
100
AcDbEntity
  8
Cut
 62
   179
420
  1842203
370
     9
100
AcDbVertex
100
AcDb2dVertex
 10
546.2162482267811
 20
-32.42143201335956
 30
0.0
  0
VERTEX
  5
68
330
65
100
AcDbEntity
  8
Cut
 62
   179
420
  1842203
370
     9
100
AcDbVertex
100
AcDb2dVertex
 10
598.996067967313
 20
-42.7802165579854
 30
0.0
  0
VERTEX
  5
69
330
65
100
AcDbEntity
  8
Cut
 62
   179
420
  1842203
370
     9
100
AcDbVertex
100
AcDb2dVertex
 10
591.0025961181914
 20
56.13179377938326
 30
0.0
  0
SEQEND
  5
6A
330
65
100
AcDbEntity
  8
Cut
 62
   179
420
  1842203
370
     9
  0
POLYLINE
  5
6B
330
1F
100
AcDbEntity
  8
Cut
 62
   179
420
  1842203
370
     9
100
AcDb2dPolyline
 66
     1
 10
0.0
 20
0.0
 30
0.0
  0
VERTEX
  5
6C
330
6B
100
AcDbEntity
  8
Cut
 62
   179
420
  1842203
370
     9
100
AcDbVertex
100
AcDb2dVertex
 10
606.204438492198
 20
76.0994443422007
 30
0.0
  0
VERTEX
  5
6D
330
6B
100
AcDbEntity
  8
Cut
 62
   179
420
  1842203
370
     9
100
AcDbVertex
100
AcDb2dVertex
 10
606.2039032374477
 20
76.09422693722789
 30
0.0
  0
VERTEX
  5
6E
330
6B
100
AcDbEntity
  8
Cut
 62
   179
420
  1842203
370
     9
100
AcDbVertex
100
AcDb2dVertex
 10
602.4823826801783
 20
74.10273397593645
 30
0.0
  0
VERTEX
  5
6F
330
6B
100
AcDbEntity
  8
Cut
 62
   179
420
  1842203
370
     9
100
AcDbVertex
100
AcDb2dVertex
 10
612.2812350712564
 20
-48.81038749476694
 30
0.0
  0
VERTEX
  5
70
330
6B
100
AcDbEntity
  8
Cut
 62
   179
420
  1842203
370
     9
100
AcDbVertex
100
AcDb2dVertex
 10
616.9813903827105
 20
-55.83593586950366
 30
0.0
  0
VERTEX
  5
71
330
6B
100
AcDbEntity
  8
Cut
 62
   179
420
  1842203
370
     9
100
AcDbVertex
100
AcDb2dVertex
 10
616.9813903827105
 20
-55.83593586950366
 30
0.0
  0
VERTEX
  5
72
330
6B
100
AcDbEntity
  8
Cut
 62
   179
420
  1842203
370
     9
100
AcDbVertex
100
AcDb2dVertex
 10
616.9814365934245
 20
-55.83600579643171
 30
0.0
  0
VERTEX
  5
73
330
6B
100
AcDbEntity
  8
Cut
 62
   179
420
  1842203
370
     9
100
AcDbVertex
100
AcDb2dVertex
 10
749.3516836484615
 20
-55.09224482057423
 30
0.0
  0
VERTEX
  5
74
330
6B
100
AcDbEntity
  8
Cut
 62
   179
420
  1842203
370
     9
100
AcDbVertex
100
AcDb2dVertex
 10
749.3465678528206
 20
-55.0689432483659
 30
0.0
  0
VERTEX
  5
75
330
6B
100
AcDbEntity
  8
Cut
 62
   179
420
  1842203
370
     9
100
AcDbVertex
100
AcDb2dVertex
 10
749.3532833269562
 20
-55.0923046182531
 30
0.0
  0
VERTEX
  5
76
330
6B
100
AcDbEntity
  8
Cut
 62
   179
420
  1842203
370
     9
100
AcDbVertex
100
AcDb2dVertex
 10
729.5199062840082
 20
13.85995380878953
 30
0.0
  0
VERTEX
  5
77
330
6B
100
AcDbEntity
  8
Cut
 62
   179
420
  1842203
370
     9
100
AcDbVertex
100
AcDb2dVertex
 10
729.5197027006661
 20
13.8603334163484
 30
0.0
  0
VERTEX
  5
78
330
6B
100
AcDbEntity
  8
Cut
 62
   179
420
  1842203
370
     9
100
AcDbVertex
100
AcDb2dVertex
 10
676.6260471200554
 20
62.33746933390147
 30
0.0
  0
VERTEX
  5
79
330
6B
100
AcDbEntity
  8
Cut
 62
   179
420
  1842203
370
     9
100
AcDbVertex
100
AcDb2dVertex
 10
676.620047850467
 20
62.32556802777987
 30
0.0
  0
VERTEX
  5
7A
330
6B
100
AcDbEntity
  8
Cut
 62
   179
420
  1842203
370
     9
100
AcDbVertex
100
AcDb2dVertex
 10
676.6205162211722
 20
62.3385952283378
 30
0.0
  0
VERTEX
  5
7B
330
6B
100
AcDbEntity
  8
Cut
 62
   179
420
  1842203
370
     9
100
AcDbVertex
100
AcDb2dVertex
 10
676.6260745902929
 20
62.33749930681816
 30
0.0
  0
VERTEX
  5
7C
330
6B
100
AcDbEntity
  8
Cut
 62
   179
420
  1842203
370
     9
100
AcDbVertex
100
AcDb2dVertex
 10
675.236042527273
 20
70.06130356437285
 30
0.0
  0
VERTEX
  5
7D
330
6B
100
AcDbEntity
  8
Cut
 62
   179
420
  1842203
370
     9
100
AcDbVertex
100
AcDb2dVertex
 10
610.7067776804502
 20
82.67024078833974
 30
0.0
  0
VERTEX
  5
7E
330
6B
100
AcDbEntity
  8
Cut
 62
   179
420
  1842203
370
     9
100
AcDbVertex
100
AcDb2dVertex
 10
606.2107036386525
 20
76.09863819838313
 30
0.0
  0
VERTEX
  5
7F
330
6B
100
AcDbEntity
  8
Cut
 62
   179
420
  1842203
370
     9
100
AcDbVertex
100
AcDb2dVertex
 10
606.204438492198
 20
76.0994443422007
 30
0.0
  0
SEQEND
  5
80
330
6B
100
AcDbEntity
  8
Cut
 62
   179
420
  1842203
370
     9
  0
POLYLINE
  5
81
330
1F
100
AcDbEntity
  8
Cut
 62
   179
420
  1842203
370
     9
100
AcDb2dPolyline
 66
     1
 10
0.0
 20
0.0
 30
0.0
  0
VERTEX
  5
82
330
81
100
AcDbEntity
  8
Cut
 62
   179
420
  1842203
370
     9
100
AcDbVertex
100
AcDb2dVertex
 10
740.3330056279837
 20
-48.34146763426187
 30
0.0
  0
VERTEX
  5
83
330
81
100
AcDbEntity
  8
Cut
 62
   179
420
  1842203
370
     9
100
AcDbVertex
100
AcDb2dVertex
 10
725.4657277076681
 20
3.349650179430296
 30
0.0
  0
VERTEX
  5
84
330
81
100
AcDbEntity
  8
Cut
 62
   179
420
  1842203
370
     9
100
AcDbVertex
100
AcDb2dVertex
 10
641.1000564420775
 20
-48.89902700629685
 30
0.0
  0
VERTEX
  5
85
330
81
100
AcDbEntity
  8
Cut
 62
   179
420
  1842203
370
     9
100
AcDbVertex
100
AcDb2dVertex
 10
740.3330056279837
 20
-48.34146763426187
 30
0.0
  0
SEQEND
  5
86
330
81
100
AcDbEntity
  8
Cut
 62
   179
420
  1842203
370
     9
  0
POLYLINE
  5
87
330
1F
100
AcDbEntity
  8
Cut
 62
   179
420
  1842203
370
     9
100
AcDb2dPolyline
 66
     1
 10
0.0
 20
0.0
 30
0.0
  0
VERTEX
  5
88
330
87
100
AcDbEntity
  8
Cut
 62
   179
420
  1842203
370
     9
100
AcDbVertex
100
AcDb2dVertex
 10
718.3036760620421
 20
14.91417331184014
 30
0.0
  0
VERTEX
  5
89
330
87
100
AcDbEntity
  8
Cut
 62
   179
420
  1842203
370
     9
100
AcDbVertex
100
AcDb2dVertex
 10
678.651349599218
 20
51.25560591439801
 30
0.0
  0
VERTEX
  5
8A
330
87
100
AcDbEntity
  8
Cut
 62
   179
420
  1842203
370
     9
100
AcDbVertex
100
AcDb2dVertex
 10
633.9380047964619
 20
-37.33450387388861
 30
0.0
  0
VERTEX
  5
8B
330
87
100
AcDbEntity
  8
Cut
 62
   179
420
  1842203
370
     9
100
AcDbVertex
100
AcDb2dVertex
 10
718.3036760620421
 20
14.91417331184014
 30
0.0
  0
SEQEND
  5
8C
330
87
100
AcDbEntity
  8
Cut
 62
   179
420
  1842203
370
     9
  0
POLYLINE
  5
8D
330
1F
100
AcDbEntity
  8
Cut
 62
   179
420
  1842203
370
     9
100
AcDb2dPolyline
 66
     1
 10
0.0
 20
0.0
 30
0.0
  0
VERTEX
  5
8E
330
8D
100
AcDbEntity
  8
Cut
 62
   179
420
  1842203
370
     9
100
AcDbVertex
100
AcDb2dVertex
 10
621.84032971794
 20
-31.3920655093688
 30
0.0
  0
VERTEX
  5
8F
330
8D
100
AcDbEntity
  8
Cut
 62
   179
420
  1842203
370
     9
100
AcDbVertex
100
AcDb2dVertex
 10
666.5536745206992
 20
57.19804427891878
 30
0.0
  0
VERTEX
  5
90
330
8D
100
AcDbEntity
  8
Cut
 62
   179
420
  1842203
370
     9
100
AcDbVertex
100
AcDb2dVertex
 10
613.7653347280085
 20
67.51332280236716
 30
0.0
  0
VERTEX
  5
91
330
8D
100
AcDbEntity
  8
Cut
 62
   179
420
  1842203
370
     9
100
AcDbVertex
100
AcDb2dVertex
 10
621.84032971794
 20
-31.3920655093688
 30
0.0
  0
SEQEND
  5
92
330
8D
100
AcDbEntity
  8
Cut
 62
   179
420
  1842203
370
     9
  0
POLYLINE
  5
94
330
1F
100
AcDbEntity
  8
Ritzen
 62
    12
420
 14877971
370
     9
100
AcDb2dPolyline
 66
     1
 10
0.0
 20
0.0
 30
0.0
  0
VERTEX
  5
95
330
94
100
AcDbEntity
  8
Ritzen
 62
    12
420
 14877971
370
     9
100
AcDbVertex
100
AcDb2dVertex
 10
483.2857582347884
 20
10.96854214468079
 30
0.0
  0
VERTEX
  5
96
330
94
100
AcDbEntity
  8
Ritzen
 62
    12
420
 14877971
370
     9
100
AcDbVertex
100
AcDb2dVertex
 10
595.8825276096997
 20
80.56127057921695
 30
0.0
  0
SEQEND
  5
97
330
94
100
AcDbEntity
  8
Ritzen
 62
    12
420
 14877971
370
     9
  0
POLYLINE
  5
98
330
1F
100
AcDbEntity
  8
Ritzen
 62
    12
420
 14877971
370
     9
100
AcDb2dPolyline
 66
     1
 10
0.0
 20
0.0
 30
0.0
  0
VERTEX
  5
99
330
98
100
AcDbEntity
  8
Ritzen
 62
    12
420
 14877971
370
     9
100
AcDbVertex
100
AcDb2dVertex
 10
536.1396155057853
 20
-37.5525833609538
 30
0.0
  0
VERTEX
  5
9A
330
98
100
AcDbEntity
  8
Ritzen
 62
    12
420
 14877971
370
     9
100
AcDbVertex
100
AcDb2dVertex
 10
595.8825276096997
 20
80.56127057921695
 30
0.0
  0
SEQEND
  5
9B
330
98
100
AcDbEntity
  8
Ritzen
 62
    12
420
 14877971
370
     9
  0
POLYLINE
  5
9C
330
1F
100
AcDbEntity
  8
Ritzen
 62
    12
420
 14877971
370
     9
100
AcDb2dPolyline
 66
     1
 10
0.0
 20
0.0
 30
0.0
  0
VERTEX
  5
9D
330
9C
100
AcDbEntity
  8
Ritzen
 62
    12
420
 14877971
370
     9
100
AcDbVertex
100
AcDb2dVertex
 10
606.550424284694
 20
-51.36735010697558
 30
0.0
  0
VERTEX
  5
9E
330
9C
100
AcDbEntity
  8
Ritzen
 62
    12
420
 14877971
370
     9
100
AcDbVertex
100
AcDb2dVertex
 10
595.880336767784
 20
80.57078781140761
 30
0.0
  0
SEQEND
  5
9F
330
9C
100
AcDbEntity
  8
Ritzen
 62
    12
420
 14877971
370
     9
  0
POLYLINE
  5
A0
330
1F
100
AcDbEntity
  8
Ritzen
 62
    12
420
 14877971
370
     9
100
AcDb2dPolyline
 66
     1
 10
0.0
 20
0.0
 30
0.0
  0
VERTEX
  5
A1
330
A0
100
AcDbEntity
  8
Ritzen
 62
    12
420
 14877971
370
     9
100
AcDbVertex
100
AcDb2dVertex
 10
729.5199062840082
 20
13.85995380878953
 30
0.0
  0
VERTEX
  5
A2
330
A0
100
AcDbEntity
  8
Ritzen
 62
    12
420
 14877971
370
     9
100
AcDbVertex
100
AcDb2dVertex
 10
616.9805352952876
 20
-55.82555617781192
 30
0.0
  0
SEQEND
  5
A3
330
A0
100
AcDbEntity
  8
Ritzen
 62
    12
420
 14877971
370
     9
  0
POLYLINE
  5
A4
330
1F
100
AcDbEntity
  8
Ritzen
 62
    12
420
 14877971
370
     9
100
AcDb2dPolyline
 66
     1
 10
0.0
 20
0.0
 30
0.0
  0
VERTEX
  5
A5
330
A4
100
AcDbEntity
  8
Ritzen
 62
    12
420
 14877971
370
     9
100
AcDbVertex
100
AcDb2dVertex
 10
676.6260745902929
 20
62.33749930681816
 30
0.0
  0
VERTEX
  5
A6
330
A4
100
AcDbEntity
  8
Ritzen
 62
    12
420
 14877971
370
     9
100
AcDbVertex
100
AcDb2dVertex
 10
616.9805352952876
 20
-55.82555617781192
 30
0.0
  0
SEQEND
  5
A7
330
A4
100
AcDbEntity
  8
Ritzen
 62
    12
420
 14877971
370
     9
  0
POLYLINE
  5
A8
330
1F
100
AcDbEntity
  8
Ritzen
 62
    12
420
 14877971
370
     9
100
AcDb2dPolyline
 66
     1
 10
0.0
 20
0.0
 30
0.0
  0
VERTEX
  5
A9
330
A8
100
AcDbEntity
  8
Ritzen
 62
    12
420
 14877971
370
     9
100
AcDbVertex
100
AcDb2dVertex
 10
606.2039032374477
 20
76.09422693722789
 30
0.0
  0
VERTEX
  5
AA
330
A8
100
AcDbEntity
  8
Ritzen
 62
    12
420
 14877971
370
     9
100
AcDbVertex
100
AcDb2dVertex
 10
616.9827339808119
 20
-55.8350716010225
 30
0.0
  0
SEQEND
  5
AB
330
A8
100
AcDbEntity
  8
Ritzen
 62
    12
420
 14877971
370
     9
  0
ENDSEC
  0
SECTION
  2
OBJECTS
  0
DICTIONARY
  5
C
330
0
100
AcDbDictionary
281
     1
  3
ACAD_GROUP
350
D
  3
ACAD_LAYOUT
350
1A
  3
ACAD_MATERIAL
350
3B
  3
ACAD_MLEADERSTYLE
350
AD
  3
ACAD_MLINESTYLE
350
17
  3
ACAD_PLOTSETTINGS
350
19
  3
ACAD_PLOTSTYLENAME
350
E
  3
ACAD_TABLESTYLE
350
AC
  3
ACAD_VISUALSTYLE
350
2A
  0
SUN
  5
3F
330
29
100
AcDbSun
 90
        1
290
     0
 63
     7
421
 16777215
 40
1.0
291
     1
 91
  2455826
 92
 54000000
292
     0
 70
     2
 71
   256
280
     1
  0
DICTIONARY
  5
D
102
{ACAD_REACTORS
330
C
102
}
330
C
100
AcDbDictionary
281
     1
  0
DICTIONARY
  5
1A
102
{ACAD_REACTORS
330
C
102
}
330
C
100
AcDbDictionary
281
     1
  3
Layout1
350
1E
  3
Layout2
350
26
  3
Model
350
22
  0
DICTIONARY
  5
3B
102
{ACAD_REACTORS
330
C
102
}
330
C
100
AcDbDictionary
281
     1
  3
ByBlock
350
3D
  3
ByLayer
350
3C
  3
Global
350
3E
  0
DICTIONARY
  5
AD
102
{ACAD_REACTORS
330
C
102
}
330
C
100
AcDbDictionary
281
     1
  0
DICTIONARY
  5
17
102
{ACAD_REACTORS
330
C
102
}
330
C
100
AcDbDictionary
281
     1
  3
Standard
350
18
  0
DICTIONARY
  5
19
102
{ACAD_REACTORS
330
C
102
}
330
C
100
AcDbDictionary
281
     1
  0
ACDBDICTIONARYWDFLT
  5
E
102
{ACAD_REACTORS
330
C
102
}
330
C
100
AcDbDictionary
281
     1
  3
Normal
350
F
100
AcDbDictionaryWithDefault
340
F
  0
DICTIONARY
  5
AC
102
{ACAD_REACTORS
330
C
102
}
330
C
100
AcDbDictionary
281
     1
  0
DICTIONARY
  5
2A
102
{ACAD_REACTORS
330
C
102
}
330
C
100
AcDbDictionary
281
     1
  3
2dWireframe
350
2F
  3
3D Hidden
350
31
  3
3dWireframe
350
30
  3
Basic
350
32
  3
Brighten
350
36
  3
ColorChange
350
3A
  3
Conceptual
350
34
  3
Dim
350
35
  3
Facepattern
350
39
  3
Flat
350
2B
  3
FlatWithEdges
350
2C
  3
Gouraud
350
2D
  3
GouraudWithEdges
350
2E
  3
Linepattern
350
38
  3
Realistic
350
33
  3
Thicken
350
37
  0
LAYOUT
  5
1E
102
{ACAD_REACTORS
330
1A
102
}
330
1A
100
AcDbPlotSettings
  1

  2
none_device
  4

  6

 40
0.0
 41
0.0
 42
0.0
 43
0.0
 44
0.0
 45
0.0
 46
0.0
 47
0.0
 48
0.0
 49
0.0
140
0.0
141
0.0
142
1.0
143
1.0
 70
   688
 72
     0
 73
     0
 74
     5
  7

 75
    16
 76
     0
 77
     2
 78
   300
147
1.0
148
0.0
149
0.0
100
AcDbLayout
  1
Layout1
 70
     1
 71
     1
 10
0.0
 20
0.0
 11
12.0
 21
9.0
 12
0.0
 22
0.0
 32
0.0
 14
1.000000000000000E+20
 24
1.000000000000000E+20
 34
1.000000000000000E+20
 15
-1.000000000000000E+20
 25
-1.000000000000000E+20
 35
-1.000000000000000E+20
146
0.0
 13
0.0
 23
0.0
 33
0.0
 16
1.0
 26
0.0
 36
0.0
 17
0.0
 27
1.0
 37
0.0
 76
     0
330
1B
  0
LAYOUT
  5
26
102
{ACAD_REACTORS
330
1A
102
}
330
1A
100
AcDbPlotSettings
  1

  2
none_device
  4

  6

 40
0.0
 41
0.0
 42
0.0
 43
0.0
 44
0.0
 45
0.0
 46
0.0
 47
0.0
 48
0.0
 49
0.0
140
0.0
141
0.0
142
1.0
143
1.0
 70
   688
 72
     0
 73
     0
 74
     5
  7

 75
    16
 76
     0
 77
     2
 78
   300
147
1.0
148
0.0
149
0.0
100
AcDbLayout
  1
Layout2
 70
     1
 71
     2
 10
0.0
 20
0.0
 11
0.0
 21
0.0
 12
0.0
 22
0.0
 32
0.0
 14
0.0
 24
0.0
 34
0.0
 15
0.0
 25
0.0
 35
0.0
146
0.0
 13
0.0
 23
0.0
 33
0.0
 16
1.0
 26
0.0
 36
0.0
 17
0.0
 27
1.0
 37
0.0
 76
     0
330
23
  0
LAYOUT
  5
22
102
{ACAD_REACTORS
330
1A
102
}
330
1A
100
AcDbPlotSettings
  1

  2
none_device
  4

  6

 40
0.0
 41
0.0
 42
0.0
 43
0.0
 44
0.0
 45
0.0
 46
0.0
 47
0.0
 48
0.0
 49
0.0
140
0.0
141
0.0
142
1.0
143
1.0
 70
  1712
 72
     0
 73
     0
 74
     0
  7

 75
     0
 76
     0
 77
     2
 78
   300
147
1.0
148
0.0
149
0.0
100
AcDbLayout
  1
Model
 70
     1
 71
     0
 10
0.0
 20
0.0
 11
12.0
 21
9.0
 12
0.0
 22
0.0
 32
0.0
 14
1.000000000000000E+20
 24
1.000000000000000E+20
 34
1.000000000000000E+20
 15
-1.000000000000000E+20
 25
-1.000000000000000E+20
 35
-1.000000000000000E+20
146
0.0
 13
0.0
 23
0.0
 33
0.0
 16
1.0
 26
0.0
 36
0.0
 17
0.0
 27
1.0
 37
0.0
 76
     0
330
1F
331
29
  0
MATERIAL
  5
3D
102
{ACAD_REACTORS
330
3B
102
}
330
3B
100
AcDbMaterial
  1
ByBlock
 72
     1
 94
      127
  0
MATERIAL
  5
3C
102
{ACAD_REACTORS
330
3B
102
}
330
3B
100
AcDbMaterial
  1
ByLayer
 72
     1
 94
      127
  0
MATERIAL
  5
3E
102
{ACAD_REACTORS
330
3B
102
}
330
3B
100
AcDbMaterial
  1
Global
 72
     1
 94
      127
  0
MLINESTYLE
  5
18
102
{ACAD_REACTORS
330
17
102
}
330
17
100
AcDbMlineStyle
  2
Standard
 70
     0
  3

 62
   256
 51
90.0
 52
90.0
 71
     2
 49
0.5
 62
   256
  6
BYLAYER
 49
-0.5
 62
   256
  6
BYLAYER
  0
ACDBPLACEHOLDER
  5
F
102
{ACAD_REACTORS
330
E
102
}
330
E
  0
VISUALSTYLE
  5
2F
102
{ACAD_REACTORS
330
2A
102
}
330
2A
100
AcDbVisualStyle
  2
2dWireframe
 70
     4
177
     2
291
     0
 71
     0
176
     1
 72
     2
176
     1
 73
     0
176
     1
 90
        0
176
     1
 40
-0.6
176
     1
 41
-30.0
176
     1
 62
     5
 63
     7
421
 16777215
176
     1
 74
     1
176
     1
 91
        4
176
     1
 64
     7
176
     1
 65
   257
176
     1
 75
     1
176
     1
175
     1
176
     1
 42
1.0
176
     1
 92
        0
176
     1
 66
   257
176
     1
 43
1.0
176
     1
 76
     1
176
     1
 77
     6
176
     1
 78
     2
176
     1
 67
     7
176
     1
 79
     5
176
     1
170
     0
176
     1
171
     0
176
     1
290
     0
176
     1
 93
        1
176
     1
 44
0.0
176
     1
173
     0
176
     1
  0
VISUALSTYLE
  5
31
102
{ACAD_REACTORS
330
2A
102
}
330
2A
100
AcDbVisualStyle
  2
3D Hidden
 70
     6
177
     2
291
     0
 71
     1
176
     1
 72
     2
176
     1
 73
     2
176
     1
 90
        0
176
     1
 40
-0.6
176
     1
 41
-30.0
176
     1
 62
     5
 63
     7
421
 16777215
176
     1
 74
     2
176
     1
 91
        2
176
     1
 64
     7
176
     1
 65
   257
176
     1
 75
     2
176
     1
175
     1
176
     1
 42
40.0
176
     1
 92
        0
176
     1
 66
   257
176
     1
 43
1.0
176
     1
 76
     1
176
     1
 77
     6
176
     1
 78
     2
176
     1
 67
     7
176
     1
 79
     3
176
     1
170
     0
176
     1
171
     0
176
     1
290
     0
176
     1
 93
        1
176
     1
 44
0.0
176
     1
173
     0
176
     1
  0
VISUALSTYLE
  5
30
102
{ACAD_REACTORS
330
2A
102
}
330
2A
100
AcDbVisualStyle
  2
3dWireframe
 70
     5
177
     2
291
     0
 71
     0
176
     1
 72
     2
176
     1
 73
     0
176
     1
 90
        0
176
     1
 40
-0.6
176
     1
 41
-30.0
176
     1
 62
     5
 63
     7
421
 16777215
176
     1
 74
     1
176
     1
 91
        4
176
     1
 64
     7
176
     1
 65
   257
176
     1
 75
     1
176
     1
175
     1
176
     1
 42
1.0
176
     1
 92
        0
176
     1
 66
   257
176
     1
 43
1.0
176
     1
 76
     1
176
     1
 77
     6
176
     1
 78
     2
176
     1
 67
     7
176
     1
 79
     5
176
     1
170
     0
176
     1
171
     0
176
     1
290
     0
176
     1
 93
        1
176
     1
 44
0.0
176
     1
173
     0
176
     1
  0
VISUALSTYLE
  5
32
102
{ACAD_REACTORS
330
2A
102
}
330
2A
100
AcDbVisualStyle
  2
Basic
 70
     7
177
     2
291
     1
 71
     1
176
     1
 72
     0
176
     1
 73
     1
176
     1
 90
        0
176
     1
 40
-0.6
176
     1
 41
-30.0
176
     1
 62
     5
 63
     7
421
 16777215
176
     1
 74
     0
176
     1
 91
        4
176
     1
 64
     7
176
     1
 65
   257
176
     1
 75
     1
176
     1
175
     1
176
     1
 42
1.0
176
     1
 92
        8
176
     1
 66
     7
176
     1
 43
1.0
176
     1
 76
     1
176
     1
 77
     6
176
     1
 78
     2
176
     1
 67
     7
176
     1
 79
     5
176
     1
170
     0
176
     1
171
     0
176
     1
290
     0
176
     1
 93
        1
176
     1
 44
0.0
176
     1
173
     0
176
     1
  0
VISUALSTYLE
  5
36
102
{ACAD_REACTORS
330
2A
102
}
330
2A
100
AcDbVisualStyle
  2
Brighten
 70
    12
177
     2
291
     1
 71
     2
176
     1
 72
     2
176
     1
 73
     0
176
     1
 90
        0
176
     1
 40
-0.6
176
     1
 41
-30.0
176
     1
 62
     5
 63
     7
421
 16777215
176
     1
 74
     1
176
     1
 91
        4
176
     1
 64
     7
176
     1
 65
   257
176
     1
 75
     1
176
     1
175
     1
176
     1
 42
1.0
176
     1
 92
        8
176
     1
 66
     7
176
     1
 43
1.0
176
     1
 76
     1
176
     1
 77
     6
176
     1
 78
     2
176
     1
 67
     7
176
     1
 79
     5
176
     1
170
     0
176
     1
171
     0
176
     1
290
     0
176
     1
 93
        1
176
     1
 44
50.0
176
     1
173
     0
176
     1
  0
VISUALSTYLE
  5
3A
102
{ACAD_REACTORS
330
2A
102
}
330
2A
100
AcDbVisualStyle
  2
ColorChange
 70
    16
177
     2
291
     1
 71
     2
176
     1
 72
     2
176
     1
 73
     3
176
     1
 90
        0
176
     1
 40
-0.6
176
     1
 41
-30.0
176
     1
 62
     5
 63
     8
421
  8421504
176
     1
 74
     1
176
     1
 91
        4
176
     1
 64
     7
176
     1
 65
   257
176
     1
 75
     1
176
     1
175
     1
176
     1
 42
1.0
176
     1
 92
        8
176
     1
 66
     8
424
  8421504
176
     1
 43
1.0
176
     1
 76
     1
176
     1
 77
     6
176
     1
 78
     2
176
     1
 67
     7
176
     1
 79
     5
176
     1
170
     0
176
     1
171
     0
176
     1
290
     0
176
     1
 93
        1
176
     1
 44
0.0
176
     1
173
     0
176
     1
  0
VISUALSTYLE
  5
34
102
{ACAD_REACTORS
330
2A
102
}
330
2A
100
AcDbVisualStyle
  2
Conceptual
 70
     9
177
     2
291
     0
 71
     3
176
     1
 72
     2
176
     1
 73
     0
176
     1
 90
        0
176
     1
 40
-0.6
176
     1
 41
-30.0
176
     1
 62
     5
 63
     7
421
 16777215
176
     1
 74
     2
176
     1
 91
        2
176
     1
 64
     7
176
     1
 65
   257
176
     1
 75
     1
176
     1
175
     1
176
     1
 42
40.0
176
     1
 92
        8
176
     1
 66
     7
176
     1
 43
1.0
176
     1
 76
     1
176
     1
 77
     6
176
     1
 78
     2
176
     1
 67
     7
176
     1
 79
     3
176
     1
170
     0
176
     1
171
     0
176
     1
290
     0
176
     1
 93
        1
176
     1
 44
0.0
176
     1
173
     0
176
     1
  0
VISUALSTYLE
  5
35
102
{ACAD_REACTORS
330
2A
102
}
330
2A
100
AcDbVisualStyle
  2
Dim
 70
    11
177
     2
291
     1
 71
     2
176
     1
 72
     2
176
     1
 73
     0
176
     1
 90
        0
176
     1
 40
-0.6
176
     1
 41
-30.0
176
     1
 62
     5
 63
     7
421
 16777215
176
     1
 74
     1
176
     1
 91
        4
176
     1
 64
     7
176
     1
 65
   257
176
     1
 75
     1
176
     1
175
     1
176
     1
 42
1.0
176
     1
 92
        8
176
     1
 66
     7
176
     1
 43
1.0
176
     1
 76
     1
176
     1
 77
     6
176
     1
 78
     2
176
     1
 67
     7
176
     1
 79
     5
176
     1
170
     0
176
     1
171
     0
176
     1
290
     0
176
     1
 93
        1
176
     1
 44
-50.0
176
     1
173
     0
176
     1
  0
VISUALSTYLE
  5
39
102
{ACAD_REACTORS
330
2A
102
}
330
2A
100
AcDbVisualStyle
  2
Facepattern
 70
    15
177
     2
291
     1
 71
     2
176
     1
 72
     2
176
     1
 73
     0
176
     1
 90
        0
176
     1
 40
-0.6
176
     1
 41
-30.0
176
     1
 62
     5
 63
     7
421
 16777215
176
     1
 74
     1
176
     1
 91
        4
176
     1
 64
     7
176
     1
 65
   257
176
     1
 75
     1
176
     1
175
     1
176
     1
 42
1.0
176
     1
 92
        8
176
     1
 66
     7
176
     1
 43
1.0
176
     1
 76
     1
176
     1
 77
     6
176
     1
 78
     2
176
     1
 67
     7
176
     1
 79
     5
176
     1
170
     0
176
     1
171
     0
176
     1
290
     0
176
     1
 93
        1
176
     1
 44
0.0
176
     1
173
     0
176
     1
  0
VISUALSTYLE
  5
2B
102
{ACAD_REACTORS
330
2A
102
}
330
2A
100
AcDbVisualStyle
  2
Flat
 70
     0
177
     2
291
     1
 71
     2
176
     1
 72
     1
176
     1
 73
     1
176
     1
 90
        2
176
     1
 40
-0.6
176
     1
 41
30.0
176
     1
 62
     5
 63
     7
421
 16777215
176
     1
 74
     0
176
     1
 91
        4
176
     1
 64
     7
176
     1
 65
   257
176
     1
 75
     1
176
     1
175
     1
176
     1
 42
1.0
176
     1
 92
        8
176
     1
 66
     7
176
     1
 43
1.0
176
     1
 76
     1
176
     1
 77
     6
176
     1
 78
     2
176
     1
 67
     7
176
     1
 79
     5
176
     1
170
     0
176
     1
171
     0
176
     1
290
     0
176
     1
 93
       13
176
     1
 44
0.0
176
     1
173
     0
176
     1
  0
VISUALSTYLE
  5
2C
102
{ACAD_REACTORS
330
2A
102
}
330
2A
100
AcDbVisualStyle
  2
FlatWithEdges
 70
     1
177
     2
291
     1
 71
     2
176
     1
 72
     1
176
     1
 73
     1
176
     1
 90
        2
176
     1
 40
-0.6
176
     1
 41
30.0
176
     1
 62
     5
 63
     7
421
 16777215
176
     1
 74
     1
176
     1
 91
        4
176
     1
 64
     7
176
     1
 65
   257
176
     1
 75
     1
176
     1
175
     1
176
     1
 42
1.0
176
     1
 92
        0
176
     1
 66
   257
176
     1
 43
1.0
176
     1
 76
     1
176
     1
 77
     6
176
     1
 78
     2
176
     1
 67
     7
176
     1
 79
     5
176
     1
170
     0
176
     1
171
     0
176
     1
290
     0
176
     1
 93
       13
176
     1
 44
0.0
176
     1
173
     0
176
     1
  0
VISUALSTYLE
  5
2D
102
{ACAD_REACTORS
330
2A
102
}
330
2A
100
AcDbVisualStyle
  2
Gouraud
 70
     2
177
     2
291
     1
 71
     2
176
     1
 72
     2
176
     1
 73
     1
176
     1
 90
        2
176
     1
 40
-0.6
176
     1
 41
30.0
176
     1
 62
     5
 63
     7
421
 16777215
176
     1
 74
     0
176
     1
 91
        4
176
     1
 64
     7
176
     1
 65
   257
176
     1
 75
     1
176
     1
175
     1
176
     1
 42
1.0
176
     1
 92
        0
176
     1
 66
     7
176
     1
 43
1.0
176
     1
 76
     1
176
     1
 77
     6
176
     1
 78
     2
176
     1
 67
     7
176
     1
 79
     5
176
     1
170
     0
176
     1
171
     0
176
     1
290
     0
176
     1
 93
       13
176
     1
 44
0.0
176
     1
173
     0
176
     1
  0
VISUALSTYLE
  5
2E
102
{ACAD_REACTORS
330
2A
102
}
330
2A
100
AcDbVisualStyle
  2
GouraudWithEdges
 70
     3
177
     2
291
     1
 71
     2
176
     1
 72
     2
176
     1
 73
     1
176
     1
 90
        2
176
     1
 40
-0.6
176
     1
 41
30.0
176
     1
 62
     5
 63
     7
421
 16777215
176
     1
 74
     1
176
     1
 91
        4
176
     1
 64
     7
176
     1
 65
   257
176
     1
 75
     1
176
     1
175
     1
176
     1
 42
1.0
176
     1
 92
        0
176
     1
 66
   257
176
     1
 43
1.0
176
     1
 76
     1
176
     1
 77
     6
176
     1
 78
     2
176
     1
 67
     7
176
     1
 79
     5
176
     1
170
     0
176
     1
171
     0
176
     1
290
     0
176
     1
 93
       13
176
     1
 44
0.0
176
     1
173
     0
176
     1
  0
VISUALSTYLE
  5
38
102
{ACAD_REACTORS
330
2A
102
}
330
2A
100
AcDbVisualStyle
  2
Linepattern
 70
    14
177
     2
291
     1
 71
     2
176
     1
 72
     2
176
     1
 73
     0
176
     1
 90
        0
176
     1
 40
-0.6
176
     1
 41
-30.0
176
     1
 62
     5
 63
     7
421
 16777215
176
     1
 74
     1
176
     1
 91
        4
176
     1
 64
     7
176
     1
 65
   257
176
     1
 75
     7
176
     1
175
     7
176
     1
 42
1.0
176
     1
 92
        8
176
     1
 66
     7
176
     1
 43
1.0
176
     1
 76
     1
176
     1
 77
     6
176
     1
 78
     2
176
     1
 67
     7
176
     1
 79
     5
176
     1
170
     0
176
     1
171
     0
176
     1
290
     0
176
     1
 93
        1
176
     1
 44
0.0
176
     1
173
     0
176
     1
  0
VISUALSTYLE
  5
33
102
{ACAD_REACTORS
330
2A
102
}
330
2A
100
AcDbVisualStyle
  2
Realistic
 70
     8
177
     2
291
     0
 71
     2
176
     1
 72
     2
176
     1
 73
     0
176
     1
 90
        0
176
     1
 40
-0.6
176
     1
 41
-30.0
176
     1
 62
     5
 63
     7
421
 16777215
176
     1
 74
     1
176
     1
 91
        0
176
     1
 64
     7
176
     1
 65
   257
176
     1
 75
     1
176
     1
175
     1
176
     1
 42
1.0
176
     1
 92
        8
176
     1
 66
     8
424
  7895160
176
     1
 43
1.0
176
     1
 76
     1
176
     1
 77
     6
176
     1
 78
     2
176
     1
 67
     7
176
     1
 79
     5
176
     1
170
     0
176
     1
171
     0
176
     1
290
     0
176
     1
 93
       13
176
     1
 44
0.0
176
     1
173
     0
176
     1
  0
VISUALSTYLE
  5
37
102
{ACAD_REACTORS
330
2A
102
}
330
2A
100
AcDbVisualStyle
  2
Thicken
 70
    13
177
     2
291
     1
 71
     2
176
     1
 72
     2
176
     1
 73
     0
176
     1
 90
        0
176
     1
 40
-0.6
176
     1
 41
-30.0
176
     1
 62
     5
 63
     7
421
 16777215
176
     1
 74
     1
176
     1
 91
        4
176
     1
 64
     7
176
     1
 65
   257
176
     1
 75
     1
176
     1
175
     1
176
     1
 42
1.0
176
     1
 92
       12
176
     1
 66
     7
176
     1
 43
1.0
176
     1
 76
     1
176
     1
 77
     6
176
     1
 78
     2
176
     1
 67
     7
176
     1
 79
     5
176
     1
170
     0
176
     1
171
     0
176
     1
290
     0
176
     1
 93
        1
176
     1
 44
0.0
176
     1
173
     0
176
     1
  0
ENDSEC
  0
EOF
