  0
SECTION
  2
HEADER
  9
$ACADVER
  1
AC1024
  9
$ACADMAINTVER
 70
     6
  9
$DWGCODEPAGE
  3
UNDEFINED
  9
$INSBASE
 10
0.0
 20
0.0
 30
0.0
  9
$EXTMIN
 10
1.000000000000000E+20
 20
1.000000000000000E+20
 30
1.000000000000000E+20
  9
$EXTMAX
 10
-1.000000000000000E+20
 20
-1.000000000000000E+20
 30
-1.000000000000000E+20
  9
$LIMMIN
 10
0.0
 20
0.0
  9
$LIMMAX
 10
12.0
 20
9.0
  9
$ORTHOMODE
 70
     0
  9
$REGENMODE
 70
     1
  9
$FILLMODE
 70
     1
  9
$QTEXTMODE
 70
     0
  9
$MIRRTEXT
 70
     1
  9
$LTSCALE
 40
1.0
  9
$ATTMODE
 70
     1
  9
$TEXTSIZE
 40
0.2
  9
$TRACEWID
 40
0.05
  9
$TEXTSTYLE
  7
Standard
  9
$CLAYER
  8
0
  9
$CELTYPE
  6
ByLayer
  9
$CECOLOR
 62
   256
  9
$CELTSCALE
 40
1.0
  9
$DISPSILH
 70
     0
  9
$DIMSCALE
 40
1.0
  9
$DIMASZ
 40
0.18
  9
$DIMEXO
 40
0.0625
  9
$DIMDLI
 40
0.38
  9
$DIMRND
 40
0.0
  9
$DIMDLE
 40
0.0
  9
$DIMEXE
 40
0.18
  9
$DIMTP
 40
0.0
  9
$DIMTM
 40
0.0
  9
$DIMTXT
 40
0.18
  9
$DIMCEN
 40
0.09
  9
$DIMTSZ
 40
0.0
  9
$DIMTOL
 70
     0
  9
$DIMLIM
 70
     0
  9
$DIMTIH
 70
     1
  9
$DIMTOH
 70
     1
  9
$DIMSE1
 70
     0
  9
$DIMSE2
 70
     0
  9
$DIMTAD
 70
     0
  9
$DIMZIN
 70
     0
  9
$DIMBLK
  1

  9
$DIMASO
 70
     1
  9
$DIMSHO
 70
     1
  9
$DIMPOST
  1

  9
$DIMAPOST
  1

  9
$DIMALT
 70
     0
  9
$DIMALTD
 70
     2
  9
$DIMALTF
 40
25.4
  9
$DIMLFAC
 40
1.0
  9
$DIMTOFL
 70
     0
  9
$DIMTVP
 40
0.0
  9
$DIMTIX
 70
     0
  9
$DIMSOXD
 70
     0
  9
$DIMSAH
 70
     0
  9
$DIMBLK1
  1

  9
$DIMBLK2
  1

  9
$DIMSTYLE
  2
Standard
  9
$DIMCLRD
 70
     0
  9
$DIMCLRE
 70
     0
  9
$DIMCLRT
 70
     0
  9
$DIMTFAC
 40
1.0
  9
$DIMGAP
 40
0.09
  9
$DIMJUST
 70
     0
  9
$DIMSD1
 70
     0
  9
$DIMSD2
 70
     0
  9
$DIMTOLJ
 70
     1
  9
$DIMTZIN
 70
     0
  9
$DIMALTZ
 70
     0
  9
$DIMALTTZ
 70
     0
  9
$DIMUPT
 70
     0
  9
$DIMDEC
 70
     4
  9
$DIMTDEC
 70
     4
  9
$DIMALTU
 70
     2
  9
$DIMALTTD
 70
     2
  9
$DIMTXSTY
  7
Standard
  9
$DIMAUNIT
 70
     0
  9
$DIMADEC
 70
     0
  9
$DIMALTRND
 40
0.0
  9
$DIMAZIN
 70
     0
  9
$DIMDSEP
 70
    46
  9
$DIMATFIT
 70
     3
  9
$DIMFRAC
 70
     0
  9
$DIMLDRBLK
  1

  9
$DIMLUNIT
 70
     2
  9
$DIMLWD
 70
    -2
  9
$DIMLWE
 70
    -2
  9
$DIMTMOVE
 70
     0
  9
$DIMFXL
 40
1.0
  9
$DIMFXLON
 70
     0
  9
$DIMJOGANG
 40
0.7853981633974483
  9
$DIMTFILL
 70
     0
  9
$DIMTFILLCLR
 70
     0
  9
$DIMARCSYM
 70
     0
  9
$DIMLTYPE
  6

  9
$DIMLTEX1
  6

  9
$DIMLTEX2
  6

  9
$DIMTXTDIRECTION
 70
     0
  9
$LUNITS
 70
     2
  9
$LUPREC
 70
     4
  9
$SKETCHINC
 40
0.1
  9
$FILLETRAD
 40
0.5
  9
$AUNITS
 70
     0
  9
$AUPREC
 70
     0
  9
$MENU
  1
.
  9
$ELEVATION
 40
0.0
  9
$PELEVATION
 40
0.0
  9
$THICKNESS
 40
0.0
  9
$LIMCHECK
 70
     0
  9
$CHAMFERA
 40
0.5
  9
$CHAMFERB
 40
0.5
  9
$CHAMFERC
 40
1.0
  9
$CHAMFERD
 40
0.0
  9
$SKPOLY
 70
     0
  9
$TDCREATE
 40
2458101.916574062
  9
$TDUCREATE
 40
2458101.874907407
  9
$TDUPDATE
 40
2458101.916574062
  9
$TDUUPDATE
 40
2458101.874907407
  9
$TDINDWG
 40
0.0000000116
  9
$TDUSRTIMER
 40
0.0000000116
  9
$USRTIMER
 70
     1
  9
$ANGBASE
 50
0.0
  9
$ANGDIR
 70
     0
  9
$PDMODE
 70
     0
  9
$PDSIZE
 40
0.0
  9
$PLINEWID
 40
0.0
  9
$SPLFRAME
 70
     0
  9
$SPLINETYPE
 70
     6
  9
$SPLINESEGS
 70
     8
  9
$HANDSEED
  5
432
  9
$SURFTAB1
 70
     6
  9
$SURFTAB2
 70
     6
  9
$SURFTYPE
 70
     6
  9
$SURFU
 70
     6
  9
$SURFV
 70
     6
  9
$UCSBASE
  2

  9
$UCSNAME
  2

  9
$UCSORG
 10
0.0
 20
0.0
 30
0.0
  9
$UCSXDIR
 10
1.0
 20
0.0
 30
0.0
  9
$UCSYDIR
 10
0.0
 20
1.0
 30
0.0
  9
$UCSORTHOREF
  2

  9
$UCSORTHOVIEW
 70
     0
  9
$UCSORGTOP
 10
0.0
 20
0.0
 30
0.0
  9
$UCSORGBOTTOM
 10
0.0
 20
0.0
 30
0.0
  9
$UCSORGLEFT
 10
0.0
 20
0.0
 30
0.0
  9
$UCSORGRIGHT
 10
0.0
 20
0.0
 30
0.0
  9
$UCSORGFRONT
 10
0.0
 20
0.0
 30
0.0
  9
$UCSORGBACK
 10
0.0
 20
0.0
 30
0.0
  9
$PUCSBASE
  2

  9
$PUCSNAME
  2

  9
$PUCSORG
 10
0.0
 20
0.0
 30
0.0
  9
$PUCSXDIR
 10
1.0
 20
0.0
 30
0.0
  9
$PUCSYDIR
 10
0.0
 20
1.0
 30
0.0
  9
$PUCSORTHOREF
  2

  9
$PUCSORTHOVIEW
 70
     0
  9
$PUCSORGTOP
 10
0.0
 20
0.0
 30
0.0
  9
$PUCSORGBOTTOM
 10
0.0
 20
0.0
 30
0.0
  9
$PUCSORGLEFT
 10
0.0
 20
0.0
 30
0.0
  9
$PUCSORGRIGHT
 10
0.0
 20
0.0
 30
0.0
  9
$PUCSORGFRONT
 10
0.0
 20
0.0
 30
0.0
  9
$PUCSORGBACK
 10
0.0
 20
0.0
 30
0.0
  9
$USERI1
 70
     0
  9
$USERI2
 70
     0
  9
$USERI3
 70
     0
  9
$USERI4
 70
     0
  9
$USERI5
 70
     0
  9
$USERR1
 40
0.0
  9
$USERR2
 40
0.0
  9
$USERR3
 40
0.0
  9
$USERR4
 40
0.0
  9
$USERR5
 40
0.0
  9
$WORLDVIEW
 70
     1
  9
$SHADEDGE
 70
     3
  9
$SHADEDIF
 70
    70
  9
$TILEMODE
 70
     1
  9
$MAXACTVP
 70
    64
  9
$PINSBASE
 10
0.0
 20
0.0
 30
0.0
  9
$PLIMCHECK
 70
     0
  9
$PEXTMIN
 10
1.000000000000000E+20
 20
1.000000000000000E+20
 30
1.000000000000000E+20
  9
$PEXTMAX
 10
-1.000000000000000E+20
 20
-1.000000000000000E+20
 30
-1.000000000000000E+20
  9
$PLIMMIN
 10
0.0
 20
0.0
  9
$PLIMMAX
 10
12.0
 20
9.0
  9
$UNITMODE
 70
     0
  9
$VISRETAIN
 70
     1
  9
$PLINEGEN
 70
     0
  9
$PSLTSCALE
 70
     1
  9
$TREEDEPTH
 70
  3020
  9
$CMLSTYLE
  2
Standard
  9
$CMLJUST
 70
     0
  9
$CMLSCALE
 40
1.0
  9
$PROXYGRAPHICS
 70
     1
  9
$MEASUREMENT
 70
     0
  9
$CELWEIGHT
370
    -1
  9
$ENDCAPS
280
     0
  9
$JOINSTYLE
280
     0
  9
$LWDISPLAY
290
     1
  9
$INSUNITS
 70
     1
  9
$HYPERLINKBASE
  1

  9
$STYLESHEET
  1

  9
$XEDIT
290
     1
  9
$CEPSNTYPE
380
     0
  9
$PSTYLEMODE
290
     1
  9
$FINGERPRINTGUID
  2
{C6F5E55A-D835-65ED-A0F5-CB2A33B5448F}
  9
$VERSIONGUID
  2
{FAEB1C32-E019-11D5-929B-00C0DF256EC4}
  9
$EXTNAMES
290
     1
  9
$PSVPSCALE
 40
0.0
  9
$OLESTARTUP
290
     0
  9
$SORTENTS
280
   127
  9
$INDEXCTL
280
     0
  9
$HIDETEXT
280
     1
  9
$XCLIPFRAME
280
     2
  9
$HALOGAP
280
     0
  9
$OBSCOLOR
 70
   257
  9
$OBSLTYPE
280
     0
  9
$INTERSECTIONDISPLAY
280
     0
  9
$INTERSECTIONCOLOR
 70
   257
  9
$DIMASSOC
280
     2
  9
$PROJECTNAME
  1

  9
$CAMERADISPLAY
290
     0
  9
$LENSLENGTH
 40
50.0
  9
$CAMERAHEIGHT
 40
0.0
  9
$STEPSPERSEC
 40
2.0
  9
$STEPSIZE
 40
6.0
  9
$3DDWFPREC
 40
2.0
  9
$PSOLWIDTH
 40
0.25
  9
$PSOLHEIGHT
 40
4.0
  9
$LOFTANG1
 40
1.570796326794897
  9
$LOFTANG2
 40
1.570796326794897
  9
$LOFTMAG1
 40
0.0
  9
$LOFTMAG2
 40
0.0
  9
$LOFTPARAM
 70
     7
  9
$LOFTNORMALS
280
     1
  9
$LATITUDE
 40
37.795
  9
$LONGITUDE
 40
-122.394
  9
$NORTHDIRECTION
 40
0.0
  9
$TIMEZONE
 70
 -8000
  9
$LIGHTGLYPHDISPLAY
280
     1
  9
$TILEMODELIGHTSYNCH
280
     1
  9
$CMATERIAL
347
3C
  9
$SOLIDHIST
280
     1
  9
$SHOWHIST
280
     1
  9
$DWFFRAME
280
     2
  9
$DGNFRAME
280
     2
  9
$REALWORLDSCALE
290
     1
  9
$INTERFERECOLOR
 62
   256
  9
$CSHADOW
280
     0
  9
$SHADOWPLANELOCATION
 40
0.0
  0
ENDSEC
  0
SECTION
  2
CLASSES
  0
CLASS
  1
ACDBDICTIONARYWDFLT
  2
AcDbDictionaryWithDefault
  3
ObjectDBX Classes
 90
        0
 91
        4
280
     0
281
     0
  0
CLASS
  1
VISUALSTYLE
  2
AcDbVisualStyle
  3
ObjectDBX Classes
 90
     4095
 91
        4
280
     0
281
     0
  0
CLASS
  1
MATERIAL
  2
AcDbMaterial
  3
ObjectDBX Classes
 90
     1153
 91
        4
280
     0
281
     0
  0
CLASS
  1
SUN
  2
AcDbSun
  3
SCENEOE
 90
     1024
 91
        4
280
     0
281
     0
  0
ENDSEC
  0
SECTION
  2
TABLES
  0
TABLE
  2
VPORT
  5
8
330
0
100
AcDbSymbolTable
 70
     1
  0
VPORT
  5
29
330
8
100
AcDbSymbolTableRecord
100
AcDbViewportTableRecord
  2
*Active
 70
     0
 10
0.0
 20
0.0
 11
1.0
 21
1.0
 12
0.0
 22
0.0
 13
0.0
 23
0.0
 14
0.5
 24
0.5
 15
0.5
 25
0.5
 16
0.0
 26
0.0
 36
1.0
 17
602.4561307928395
 27
13.38730021497538
 37
0.0
 40
139.7365106395326
 41
2.084049587590533
 42
50.0
 43
0.0
 44
0.0
 50
0.0
 51
0.0
 71
     0
 72
   100
 73
     1
 74
     3
 75
     0
 76
     0
 77
     0
 78
     0
281
     0
 65
     1
110
0.0
120
0.0
130
0.0
111
1.0
121
0.0
131
0.0
112
0.0
122
1.0
132
0.0
 79
     0
146
0.0
 60
     3
 61
     5
292
     1
282
     1
141
0.0
142
0.0
 63
   250
361
3F
  0
ENDTAB
  0
TABLE
  2
LTYPE
  5
5
330
0
100
AcDbSymbolTable
 70
     1
  0
LTYPE
  5
14
330
5
100
AcDbSymbolTableRecord
100
AcDbLinetypeTableRecord
  2
ByBlock
 70
     0
  3

 72
    65
 73
     0
 40
0.0
  0
LTYPE
  5
15
330
5
100
AcDbSymbolTableRecord
100
AcDbLinetypeTableRecord
  2
ByLayer
 70
     0
  3

 72
    65
 73
     0
 40
0.0
  0
LTYPE
  5
16
330
5
100
AcDbSymbolTableRecord
100
AcDbLinetypeTableRecord
  2
Continuous
 70
     0
  3
Solid line
 72
    65
 73
     0
 40
0.0
  0
ENDTAB
  0
TABLE
  2
LAYER
  5
2
330
0
100
AcDbSymbolTable
 70
     3
  0
LAYER
  5
10
330
2
100
AcDbSymbolTableRecord
100
AcDbLayerTableRecord
  2
0
 70
     0
 62
     7
  6
Continuous
370
    -3
390
F
347
3E
  0
LAYER
  5
40
330
2
100
AcDbSymbolTableRecord
100
AcDbLayerTableRecord
  2
Cut
 70
     0
 62
     7
  6
Continuous
370
    -3
390
F
347
3E
  0
LAYER
  5
417
330
2
100
AcDbSymbolTableRecord
100
AcDbLayerTableRecord
  2
Ritzen
 70
     0
 62
     7
  6
Continuous
370
    -3
390
F
347
3E
  0
ENDTAB
  0
TABLE
  2
STYLE
  5
3
330
0
100
AcDbSymbolTable
 70
     1
  0
STYLE
  5
11
330
3
100
AcDbSymbolTableRecord
100
AcDbTextStyleTableRecord
  2
Standard
 70
     0
 40
0.0
 41
1.0
 50
0.0
 71
     0
 42
0.2
  3
txt
  4

  0
ENDTAB
  0
TABLE
  2
VIEW
  5
6
330
0
100
AcDbSymbolTable
 70
     0
  0
ENDTAB
  0
TABLE
  2
UCS
  5
7
330
0
100
AcDbSymbolTable
 70
     0
  0
ENDTAB
  0
TABLE
  2
APPID
  5
9
330
0
100
AcDbSymbolTable
 70
     1
  0
APPID
  5
12
330
9
100
AcDbSymbolTableRecord
100
AcDbRegAppTableRecord
  2
ACAD
 70
     0
  0
ENDTAB
  0
TABLE
  2
DIMSTYLE
  5
A
330
0
100
AcDbSymbolTable
 70
     1
100
AcDbDimStyleTable
  0
DIMSTYLE
105
27
330
A
100
AcDbSymbolTableRecord
100
AcDbDimStyleTableRecord
  2
Standard
 70
     0
178
     0
340
11
  0
ENDTAB
  0
TABLE
  2
BLOCK_RECORD
  5
1
330
0
100
AcDbSymbolTable
 70
     7
  0
BLOCK_RECORD
  5
1F
330
1
100
AcDbSymbolTableRecord
100
AcDbBlockTableRecord
  2
*Model_Space
340
22
 70
     0
280
     1
281
     0
  0
BLOCK_RECORD
  5
1B
330
1
100
AcDbSymbolTableRecord
100
AcDbBlockTableRecord
  2
*Paper_Space
340
1E
 70
     0
280
     1
281
     0
  0
BLOCK_RECORD
  5
23
330
1
100
AcDbSymbolTableRecord
100
AcDbBlockTableRecord
  2
*Paper_Space0
340
26
 70
     0
280
     1
281
     0
  0
BLOCK_RECORD
  5
41
330
1
100
AcDbSymbolTableRecord
100
AcDbBlockTableRecord
  2
block 2
340
0
102
{BLKREFS
331
42
102
}
 70
     0
280
     1
281
     0
  0
BLOCK_RECORD
  5
DD
330
1
100
AcDbSymbolTableRecord
100
AcDbBlockTableRecord
  2
block 3
340
0
102
{BLKREFS
331
DE
102
}
 70
     0
280
     1
281
     0
  0
BLOCK_RECORD
  5
179
330
1
100
AcDbSymbolTableRecord
100
AcDbBlockTableRecord
  2
block 4
340
0
102
{BLKREFS
331
17A
102
}
 70
     0
280
     1
281
     0
  0
BLOCK_RECORD
  5
22E
330
1
100
AcDbSymbolTableRecord
100
AcDbBlockTableRecord
  2
block 5
340
0
102
{BLKREFS
331
22F
102
}
 70
     0
280
     1
281
     0
  0
BLOCK_RECORD
  5
2CA
330
1
100
AcDbSymbolTableRecord
100
AcDbBlockTableRecord
  2
block 6
340
0
102
{BLKREFS
331
2CB
102
}
 70
     0
280
     1
281
     0
  0
BLOCK_RECORD
  5
366
330
1
100
AcDbSymbolTableRecord
100
AcDbBlockTableRecord
  2
block 7
340
0
102
{BLKREFS
331
367
102
}
 70
     0
280
     1
281
     0
  0
ENDTAB
  0
ENDSEC
  0
SECTION
  2
BLOCKS
  0
BLOCK
  5
20
330
1F
100
AcDbEntity
  8
0
100
AcDbBlockBegin
  2
*Model_Space
 70
     0
 10
0.0
 20
0.0
 30
0.0
  3
*Model_Space
  1

  0
ENDBLK
  5
21
330
1F
100
AcDbEntity
  8
0
100
AcDbBlockEnd
  0
BLOCK
  5
1C
330
1B
100
AcDbEntity
 67
     1
  8
0
100
AcDbBlockBegin
  2
*Paper_Space
 70
     0
 10
0.0
 20
0.0
 30
0.0
  3
*Paper_Space
  1

  0
ENDBLK
  5
1D
330
1B
100
AcDbEntity
 67
     1
  8
0
100
AcDbBlockEnd
  0
BLOCK
  5
24
330
23
100
AcDbEntity
  8
0
100
AcDbBlockBegin
  2
*Paper_Space0
 70
     0
 10
0.0
 20
0.0
 30
0.0
  3
*Paper_Space0
  1

  0
ENDBLK
  5
25
330
23
100
AcDbEntity
  8
0
100
AcDbBlockEnd
  0
BLOCK
  5
43
330
41
100
AcDbEntity
  8
0
100
AcDbBlockBegin
  2
block 2
 70
     0
 10
0.0
 20
0.0
 30
0.0
  3
block 2
  1

  0
POLYLINE
  5
45
330
41
100
AcDbEntity
  8
Cut
 62
   179
420
  1842203
370
     5
100
AcDb2dPolyline
 66
     1
 10
0.0
 20
0.0
 30
0.0
  0
VERTEX
  5
46
330
45
100
AcDbEntity
  8
Cut
 62
   179
420
  1842203
370
     5
100
AcDbVertex
100
AcDb2dVertex
 10
521.720237018162
 20
-6.322234022052185
 30
0.0
  0
VERTEX
  5
47
330
45
100
AcDbEntity
  8
Cut
 62
   179
420
  1842203
370
     5
100
AcDbVertex
100
AcDb2dVertex
 10
522.1291825950944
 20
-4.547829851935421
 30
0.0
  0
VERTEX
  5
48
330
45
100
AcDbEntity
  8
Cut
 62
   179
420
  1842203
370
     5
100
AcDbVertex
100
AcDb2dVertex
 10
520.3548603079871
 20
-5.09999141355239
 30
0.0
  0
VERTEX
  5
49
330
45
100
AcDbEntity
  8
Cut
 62
   179
420
  1842203
370
     5
100
AcDbVertex
100
AcDb2dVertex
 10
519.587374369124
 20
-2.63373568895127
 30
0.0
  0
VERTEX
  5
4A
330
45
100
AcDbEntity
  8
Cut
 62
   179
420
  1842203
370
     5
100
AcDbVertex
100
AcDb2dVertex
 10
522.776085895465
 20
-1.641431655657199
 30
0.0
  0
VERTEX
  5
4B
330
45
100
AcDbEntity
  8
Cut
 62
   179
420
  1842203
370
     5
100
AcDbVertex
100
AcDb2dVertex
 10
523.4376373064241
 20
1.292980475188781
 30
0.0
  0
VERTEX
  5
4C
330
45
100
AcDbEntity
  8
Cut
 62
   179
420
  1842203
370
     5
100
AcDbVertex
100
AcDb2dVertex
 10
519.4321803923259
 20
4.988436615306478
 30
0.0
  0
VERTEX
  5
4D
330
45
100
AcDbEntity
  8
Cut
 62
   179
420
  1842203
370
     5
100
AcDbVertex
100
AcDb2dVertex
 10
516.4457513512036
 20
4.059077792623278
 30
0.0
  0
VERTEX
  5
4E
330
45
100
AcDbEntity
  8
Cut
 62
   179
420
  1842203
370
     5
100
AcDbVertex
100
AcDb2dVertex
 10
515.6615442692192
 20
0.6438623688438053
 30
0.0
  0
VERTEX
  5
4F
330
45
100
AcDbEntity
  8
Cut
 62
   179
420
  1842203
370
     5
100
AcDbVertex
100
AcDb2dVertex
 10
513.1750121510617
 20
1.197561203087718
 30
0.0
  0
VERTEX
  5
50
330
45
100
AcDbEntity
  8
Cut
 62
   179
420
  1842203
370
     5
100
AcDbVertex
100
AcDb2dVertex
 10
513.6172545274743
 20
3.178871367172422
 30
0.0
  0
VERTEX
  5
51
330
45
100
AcDbEntity
  8
Cut
 62
   179
420
  1842203
370
     5
100
AcDbVertex
100
AcDb2dVertex
 10
511.8444825308449
 20
2.627199307126425
 30
0.0
  0
VERTEX
  5
52
330
45
100
AcDbEntity
  8
Cut
 62
   179
420
  1842203
370
     5
100
AcDbVertex
100
AcDb2dVertex
 10
510.3966242107396
 20
-3.73844874344122
 30
0.0
  0
VERTEX
  5
53
330
45
100
AcDbEntity
  8
Cut
 62
   179
420
  1842203
370
     5
100
AcDbVertex
100
AcDb2dVertex
 10
515.3312708140321
 20
-8.310450843027416
 30
0.0
  0
VERTEX
  5
54
330
45
100
AcDbEntity
  8
Cut
 62
   179
420
  1842203
370
     5
100
AcDbVertex
100
AcDb2dVertex
 10
521.720237018162
 20
-6.322234022052185
 30
0.0
  0
SEQEND
  5
55
330
45
100
AcDbEntity
  8
Cut
 62
   179
420
  1842203
370
     5
  0
POLYLINE
  5
56
330
41
100
AcDbEntity
  8
Cut
 62
   179
420
  1842203
370
     5
100
AcDb2dPolyline
 66
     1
 10
0.0
 20
0.0
 30
0.0
  0
VERTEX
  5
57
330
56
100
AcDbEntity
  8
Cut
 62
   179
420
  1842203
370
     5
100
AcDbVertex
100
AcDb2dVertex
 10
534.1241261288694
 20
9.683529988338679
 30
0.0
  0
VERTEX
  5
58
330
56
100
AcDbEntity
  8
Cut
 62
   179
420
  1842203
370
     5
100
AcDbVertex
100
AcDb2dVertex
 10
532.9139767776724
 20
4.314884808792047
 30
0.0
  0
VERTEX
  5
59
330
56
100
AcDbEntity
  8
Cut
 62
   179
420
  1842203
370
     5
100
AcDbVertex
100
AcDb2dVertex
 10
535.1676254486924
 20
2.214745475193368
 30
0.0
  0
VERTEX
  5
5A
330
56
100
AcDbEntity
  8
Cut
 62
   179
420
  1842203
370
     5
100
AcDbVertex
100
AcDb2dVertex
 10
538.5355213280461
 20
3.262820812046408
 30
0.0
  0
VERTEX
  5
5B
330
56
100
AcDbEntity
  8
Cut
 62
   179
420
  1842203
370
     5
100
AcDbVertex
100
AcDb2dVertex
 10
539.2960585318366
 20
0.8189127427236641
 30
0.0
  0
VERTEX
  5
5C
330
56
100
AcDbEntity
  8
Cut
 62
   179
420
  1842203
370
     5
100
AcDbVertex
100
AcDb2dVertex
 10
537.3422734916727
 20
0.2109048724887662
 30
0.0
  0
VERTEX
  5
5D
330
56
100
AcDbEntity
  8
Cut
 62
   179
420
  1842203
370
     5
100
AcDbVertex
100
AcDb2dVertex
 10
538.721410007489
 20
-1.055533383247501
 30
0.0
  0
VERTEX
  5
5E
330
56
100
AcDbEntity
  8
Cut
 62
   179
420
  1842203
370
     5
100
AcDbVertex
100
AcDb2dVertex
 10
543.3048349654215
 20
0.3708118197231289
 30
0.0
  0
VERTEX
  5
5F
330
56
100
AcDbEntity
  8
Cut
 62
   179
420
  1842203
370
     5
100
AcDbVertex
100
AcDb2dVertex
 10
546.780411883346
 20
7.163980274202724
 30
0.0
  0
VERTEX
  5
60
330
56
100
AcDbEntity
  8
Cut
 62
   179
420
  1842203
370
     5
100
AcDbVertex
100
AcDb2dVertex
 10
541.5554453181257
 20
11.99610791370271
 30
0.0
  0
VERTEX
  5
61
330
56
100
AcDbEntity
  8
Cut
 62
   179
420
  1842203
370
     5
100
AcDbVertex
100
AcDb2dVertex
 10
539.7811089796409
 20
11.44395937083382
 30
0.0
  0
VERTEX
  5
62
330
56
100
AcDbEntity
  8
Cut
 62
   179
420
  1842203
370
     5
100
AcDbVertex
100
AcDb2dVertex
 10
541.1535569403773
 20
10.19828939996488
 30
0.0
  0
VERTEX
  5
63
330
56
100
AcDbEntity
  8
Cut
 62
   179
420
  1842203
370
     5
100
AcDbVertex
100
AcDb2dVertex
 10
539.4059197715432
 20
8.30244942900037
 30
0.0
  0
VERTEX
  5
64
330
56
100
AcDbEntity
  8
Cut
 62
   179
420
  1842203
370
     5
100
AcDbVertex
100
AcDb2dVertex
 10
536.9526089012243
 20
10.56374943253858
 30
0.0
  0
VERTEX
  5
65
330
56
100
AcDbEntity
  8
Cut
 62
   179
420
  1842203
370
     5
100
AcDbVertex
100
AcDb2dVertex
 10
534.1241261288694
 20
9.683529988338679
 30
0.0
  0
SEQEND
  5
66
330
56
100
AcDbEntity
  8
Cut
 62
   179
420
  1842203
370
     5
  0
POLYLINE
  5
67
330
41
100
AcDbEntity
  8
Cut
 62
   179
420
  1842203
370
     5
100
AcDb2dPolyline
 66
     1
 10
0.0
 20
0.0
 30
0.0
  0
VERTEX
  5
68
330
67
100
AcDbEntity
  8
Cut
 62
   179
420
  1842203
370
     5
100
AcDbVertex
100
AcDb2dVertex
 10
505.6175403933903
 20
0.689422795004984
 30
0.0
  0
VERTEX
  5
69
330
67
100
AcDbEntity
  8
Cut
 62
   179
420
  1842203
370
     5
100
AcDbVertex
100
AcDb2dVertex
 10
508.2163143194174
 20
-1.718368644045106
 30
0.0
  0
VERTEX
  5
6A
330
67
100
AcDbEntity
  8
Cut
 62
   179
420
  1842203
370
     5
100
AcDbVertex
100
AcDb2dVertex
 10
509.0141710679625
 20
1.746415356294669
 30
0.0
  0
VERTEX
  5
6B
330
67
100
AcDbEntity
  8
Cut
 62
   179
420
  1842203
370
     5
100
AcDbVertex
100
AcDb2dVertex
 10
505.6175403933903
 20
0.689422795004984
 30
0.0
  0
SEQEND
  5
6C
330
67
100
AcDbEntity
  8
Cut
 62
   179
420
  1842203
370
     5
  0
POLYLINE
  5
6D
330
41
100
AcDbEntity
  8
Cut
 62
   179
420
  1842203
370
     5
100
AcDb2dPolyline
 66
     1
 10
0.0
 20
0.0
 30
0.0
  0
VERTEX
  5
6E
330
6D
100
AcDbEntity
  8
Cut
 62
   179
420
  1842203
370
     5
100
AcDbVertex
100
AcDb2dVertex
 10
519.2852068644307
 20
16.69422210036602
 30
0.0
  0
VERTEX
  5
6F
330
6D
100
AcDbEntity
  8
Cut
 62
   179
420
  1842203
370
     5
100
AcDbVertex
100
AcDb2dVertex
 10
521.5196765676617
 20
14.66103684069567
 30
0.0
  0
VERTEX
  5
70
330
6D
100
AcDbEntity
  8
Cut
 62
   179
420
  1842203
370
     5
100
AcDbVertex
100
AcDb2dVertex
 10
526.7279293837277
 20
16.2818137742627
 30
0.0
  0
VERTEX
  5
71
330
6D
100
AcDbEntity
  8
Cut
 62
   179
420
  1842203
370
     5
100
AcDbVertex
100
AcDb2dVertex
 10
527.4220034137037
 20
19.34881890588577
 30
0.0
  0
VERTEX
  5
72
330
6D
100
AcDbEntity
  8
Cut
 62
   179
420
  1842203
370
     5
100
AcDbVertex
100
AcDb2dVertex
 10
524.8394900287694
 20
21.71748129916753
 30
0.0
  0
VERTEX
  5
73
330
6D
100
AcDbEntity
  8
Cut
 62
   179
420
  1842203
370
     5
100
AcDbVertex
100
AcDb2dVertex
 10
526.5889245306938
 20
23.6139083014176
 30
0.0
  0
VERTEX
  5
74
330
6D
100
AcDbEntity
  8
Cut
 62
   179
420
  1842203
370
     5
100
AcDbVertex
100
AcDb2dVertex
 10
528.077339770056
 20
22.23340048491832
 30
0.0
  0
VERTEX
  5
75
330
6D
100
AcDbEntity
  8
Cut
 62
   179
420
  1842203
370
     5
100
AcDbVertex
100
AcDb2dVertex
 10
528.4778869681307
 20
24.03022239311726
 30
0.0
  0
VERTEX
  5
76
330
6D
100
AcDbEntity
  8
Cut
 62
   179
420
  1842203
370
     5
100
AcDbVertex
100
AcDb2dVertex
 10
523.6834712981594
 20
28.46781408100749
 30
0.0
  0
VERTEX
  5
77
330
6D
100
AcDbEntity
  8
Cut
 62
   179
420
  1842203
370
     5
100
AcDbVertex
100
AcDb2dVertex
 10
516.7317680708036
 20
24.21516410765603
 30
0.0
  0
VERTEX
  5
78
330
6D
100
AcDbEntity
  8
Cut
 62
   179
420
  1842203
370
     5
100
AcDbVertex
100
AcDb2dVertex
 10
515.7614659182218
 20
19.9493236977402
 30
0.0
  0
VERTEX
  5
79
330
6D
100
AcDbEntity
  8
Cut
 62
   179
420
  1842203
370
     5
100
AcDbVertex
100
AcDb2dVertex
 10
517.1268004092723
 20
18.72650001284012
 30
0.0
  0
VERTEX
  5
7A
330
6D
100
AcDbEntity
  8
Cut
 62
   179
420
  1842203
370
     5
100
AcDbVertex
100
AcDb2dVertex
 10
517.5273357780281
 20
20.52336552275524
 30
0.0
  0
VERTEX
  5
7B
330
6D
100
AcDbEntity
  8
Cut
 62
   179
420
  1842203
370
     5
100
AcDbVertex
100
AcDb2dVertex
 10
520.0223235781741
 20
19.9477899379554
 30
0.0
  0
VERTEX
  5
7C
330
6D
100
AcDbEntity
  8
Cut
 62
   179
420
  1842203
370
     5
100
AcDbVertex
100
AcDb2dVertex
 10
519.2852068644307
 20
16.69422210036602
 30
0.0
  0
SEQEND
  5
7D
330
6D
100
AcDbEntity
  8
Cut
 62
   179
420
  1842203
370
     5
  0
POLYLINE
  5
7E
330
41
100
AcDbEntity
  8
Cut
 62
   179
420
  1842203
370
     5
100
AcDb2dPolyline
 66
     1
 10
0.0
 20
0.0
 30
0.0
  0
VERTEX
  5
7F
330
7E
100
AcDbEntity
  8
Cut
 62
   179
420
  1842203
370
     5
100
AcDbVertex
100
AcDb2dVertex
 10
525.2545385392507
 20
3.60404911423827
 30
0.0
  0
VERTEX
  5
80
330
7E
100
AcDbEntity
  8
Cut
 62
   179
420
  1842203
370
     5
100
AcDbVertex
100
AcDb2dVertex
 10
530.0827708143847
 20
5.106571347413715
 30
0.0
  0
VERTEX
  5
81
330
7E
100
AcDbEntity
  8
Cut
 62
   179
420
  1842203
370
     5
100
AcDbVertex
100
AcDb2dVertex
 10
531.2095596815984
 20
10.02994820090791
 30
0.0
  0
VERTEX
  5
82
330
7E
100
AcDbEntity
  8
Cut
 62
   179
420
  1842203
370
     5
100
AcDbVertex
100
AcDb2dVertex
 10
527.4809207876791
 20
13.46744759255629
 30
0.0
  0
VERTEX
  5
83
330
7E
100
AcDbEntity
  8
Cut
 62
   179
420
  1842203
370
     5
100
AcDbVertex
100
AcDb2dVertex
 10
522.6526744611701
 20
11.96493837812828
 30
0.0
  0
VERTEX
  5
84
330
7E
100
AcDbEntity
  8
Cut
 62
   179
420
  1842203
370
     5
100
AcDbVertex
100
AcDb2dVertex
 10
521.533275241632
 20
7.018759660757368
 30
0.0
  0
VERTEX
  5
85
330
7E
100
AcDbEntity
  8
Cut
 62
   179
420
  1842203
370
     5
100
AcDbVertex
100
AcDb2dVertex
 10
525.2545385392507
 20
3.60404911423827
 30
0.0
  0
SEQEND
  5
86
330
7E
100
AcDbEntity
  8
Cut
 62
   179
420
  1842203
370
     5
  0
POLYLINE
  5
87
330
41
100
AcDbEntity
  8
Cut
 62
   179
420
  1842203
370
     5
100
AcDb2dPolyline
 66
     1
 10
0.0
 20
0.0
 30
0.0
  0
VERTEX
  5
88
330
87
100
AcDbEntity
  8
Cut
 62
   179
420
  1842203
370
     5
100
AcDbVertex
100
AcDb2dVertex
 10
529.1249301550533
 20
26.9361515090449
 30
0.0
  0
VERTEX
  5
89
330
87
100
AcDbEntity
  8
Cut
 62
   179
420
  1842203
370
     5
100
AcDbVertex
100
AcDb2dVertex
 10
530.2697661477383
 20
31.96260265798437
 30
0.0
  0
VERTEX
  5
8A
330
87
100
AcDbEntity
  8
Cut
 62
   179
420
  1842203
370
     5
100
AcDbVertex
100
AcDb2dVertex
 10
532.7793650406622
 20
31.41610025544606
 30
0.0
  0
VERTEX
  5
8B
330
87
100
AcDbEntity
  8
Cut
 62
   179
420
  1842203
370
     5
100
AcDbVertex
100
AcDb2dVertex
 10
531.6181753160427
 20
26.28482307040965
 30
0.0
  0
VERTEX
  5
8C
330
87
100
AcDbEntity
  8
Cut
 62
   179
420
  1842203
370
     5
100
AcDbVertex
100
AcDb2dVertex
 10
537.0962457044803
 20
27.98954912872114
 30
0.0
  0
VERTEX
  5
8D
330
87
100
AcDbEntity
  8
Cut
 62
   179
420
  1842203
370
     5
100
AcDbVertex
100
AcDb2dVertex
 10
537.8562909264848
 20
25.54716753443988
 30
0.0
  0
VERTEX
  5
8E
330
87
100
AcDbEntity
  8
Cut
 62
   179
420
  1842203
370
     5
100
AcDbVertex
100
AcDb2dVertex
 10
530.9641237502425
 20
23.40236099076345
 30
0.0
  0
VERTEX
  5
8F
330
87
100
AcDbEntity
  8
Cut
 62
   179
420
  1842203
370
     5
100
AcDbVertex
100
AcDb2dVertex
 10
530.5620696052483
 20
21.60506817784141
 30
0.0
  0
VERTEX
  5
90
330
87
100
AcDbEntity
  8
Cut
 62
   179
420
  1842203
370
     5
100
AcDbVertex
100
AcDb2dVertex
 10
532.3363344974235
 20
22.15722416135826
 30
0.0
  0
VERTEX
  5
91
330
87
100
AcDbEntity
  8
Cut
 62
   179
420
  1842203
370
     5
100
AcDbVertex
100
AcDb2dVertex
 10
533.0967220506042
 20
19.71377463385453
 30
0.0
  0
VERTEX
  5
92
330
87
100
AcDbEntity
  8
Cut
 62
   179
420
  1842203
370
     5
100
AcDbVertex
100
AcDb2dVertex
 10
529.9080711738857
 20
18.72147969150305
 30
0.0
  0
VERTEX
  5
93
330
87
100
AcDbEntity
  8
Cut
 62
   179
420
  1842203
370
     5
100
AcDbVertex
100
AcDb2dVertex
 10
529.2379958893151
 20
15.80895526470502
 30
0.0
  0
VERTEX
  5
94
330
87
100
AcDbEntity
  8
Cut
 62
   179
420
  1842203
370
     5
100
AcDbVertex
100
AcDb2dVertex
 10
533.2747888671828
 20
12.09873036697046
 30
0.0
  0
VERTEX
  5
95
330
87
100
AcDbEntity
  8
Cut
 62
   179
420
  1842203
370
     5
100
AcDbVertex
100
AcDb2dVertex
 10
536.2383483232112
 20
13.02096466512341
 30
0.0
  0
VERTEX
  5
96
330
87
100
AcDbEntity
  8
Cut
 62
   179
420
  1842203
370
     5
100
AcDbVertex
100
AcDb2dVertex
 10
537.0208826910341
 20
16.4362348849956
 30
0.0
  0
VERTEX
  5
97
330
87
100
AcDbEntity
  8
Cut
 62
   179
420
  1842203
370
     5
100
AcDbVertex
100
AcDb2dVertex
 10
539.5306614025781
 20
15.88919376289436
 30
0.0
  0
VERTEX
  5
98
330
87
100
AcDbEntity
  8
Cut
 62
   179
420
  1842203
370
     5
100
AcDbVertex
100
AcDb2dVertex
 10
539.0668484016277
 20
13.90117460341929
 30
0.0
  0
VERTEX
  5
99
330
87
100
AcDbEntity
  8
Cut
 62
   179
420
  1842203
370
     5
100
AcDbVertex
100
AcDb2dVertex
 10
540.8627445679626
 20
14.46004867327102
 30
0.0
  0
VERTEX
  5
9A
330
87
100
AcDbEntity
  8
Cut
 62
   179
420
  1842203
370
     5
100
AcDbVertex
100
AcDb2dVertex
 10
542.4100329104284
 20
21.35854537058497
 30
0.0
  0
VERTEX
  5
9B
330
87
100
AcDbEntity
  8
Cut
 62
   179
420
  1842203
370
     5
100
AcDbVertex
100
AcDb2dVertex
 10
544.9265978444834
 20
20.78968580686427
 30
0.0
  0
VERTEX
  5
9C
330
87
100
AcDbEntity
  8
Cut
 62
   179
420
  1842203
370
     5
100
AcDbVertex
100
AcDb2dVertex
 10
543.6912446463791
 20
15.3402586115669
 30
0.0
  0
VERTEX
  5
9D
330
87
100
AcDbEntity
  8
Cut
 62
   179
420
  1842203
370
     5
100
AcDbVertex
100
AcDb2dVertex
 10
548.6299051825046
 20
16.87713229006996
 30
0.0
  0
VERTEX
  5
9E
330
87
100
AcDbEntity
  8
Cut
 62
   179
420
  1842203
370
     5
100
AcDbVertex
100
AcDb2dVertex
 10
549.3901269684426
 20
14.43420846338171
 30
0.0
  0
VERTEX
  5
9F
330
87
100
AcDbEntity
  8
Cut
 62
   179
420
  1842203
370
     5
100
AcDbVertex
100
AcDb2dVertex
 10
544.3842032358398
 20
12.87639885011943
 30
0.0
  0
VERTEX
  5
A0
330
87
100
AcDbEntity
  8
Cut
 62
   179
420
  1842203
370
     5
100
AcDbVertex
100
AcDb2dVertex
 10
547.9912949536232
 20
9.530708360109628
 30
0.0
  0
VERTEX
  5
A1
330
87
100
AcDbEntity
  8
Cut
 62
   179
420
  1842203
370
     5
100
AcDbVertex
100
AcDb2dVertex
 10
573.1679559031813
 20
58.73956246499149
 30
0.0
  0
VERTEX
  5
A2
330
87
100
AcDbEntity
  8
Cut
 62
   179
420
  1842203
370
     5
100
AcDbVertex
100
AcDb2dVertex
 10
525.9541982122038
 20
29.85690743765563
 30
0.0
  0
VERTEX
  5
A3
330
87
100
AcDbEntity
  8
Cut
 62
   179
420
  1842203
370
     5
100
AcDbVertex
100
AcDb2dVertex
 10
529.1249301550533
 20
26.9361515090449
 30
0.0
  0
SEQEND
  5
A4
330
87
100
AcDbEntity
  8
Cut
 62
   179
420
  1842203
370
     5
  0
POLYLINE
  5
A5
330
41
100
AcDbEntity
  8
Cut
 62
   179
420
  1842203
370
     5
100
AcDb2dPolyline
 66
     1
 10
0.0
 20
0.0
 30
0.0
  0
VERTEX
  5
A6
330
A5
100
AcDbEntity
  8
Cut
 62
   179
420
  1842203
370
     5
100
AcDbVertex
100
AcDb2dVertex
 10
537.7632326921139
 20
-10.46049925647659
 30
0.0
  0
VERTEX
  5
A7
330
A5
100
AcDbEntity
  8
Cut
 62
   179
420
  1842203
370
     5
100
AcDbVertex
100
AcDb2dVertex
 10
535.3429853072661
 20
-9.900900151743784
 30
0.0
  0
VERTEX
  5
A8
330
A5
100
AcDbEntity
  8
Cut
 62
   179
420
  1842203
370
     5
100
AcDbVertex
100
AcDb2dVertex
 10
536.929997523174
 20
-2.892026483405007
 30
0.0
  0
VERTEX
  5
A9
330
A5
100
AcDbEntity
  8
Cut
 62
   179
420
  1842203
370
     5
100
AcDbVertex
100
AcDb2dVertex
 10
535.5790887645454
 20
-1.64024512513685
 30
0.0
  0
VERTEX
  5
AA
330
A5
100
AcDbEntity
  8
Cut
 62
   179
420
  1842203
370
     5
100
AcDbVertex
100
AcDb2dVertex
 10
535.1554141420819
 20
-3.444272555986874
 30
0.0
  0
VERTEX
  5
AB
330
A5
100
AcDbEntity
  8
Cut
 62
   179
420
  1842203
370
     5
100
AcDbVertex
100
AcDb2dVertex
 10
532.6617760962406
 20
-2.867747480208391
 30
0.0
  0
VERTEX
  5
AC
330
A5
100
AcDbEntity
  8
Cut
 62
   179
420
  1842203
370
     5
100
AcDbVertex
100
AcDb2dVertex
 10
533.4046608126818
 20
0.3620010231535233
 30
0.0
  0
VERTEX
  5
AD
330
A5
100
AcDbEntity
  8
Cut
 62
   179
420
  1842203
370
     5
100
AcDbVertex
100
AcDb2dVertex
 10
531.2014036250938
 20
2.381524302421169
 30
0.0
  0
VERTEX
  5
AE
330
A5
100
AcDbEntity
  8
Cut
 62
   179
420
  1842203
370
     5
100
AcDbVertex
100
AcDb2dVertex
 10
525.9472502507263
 20
0.7464650539033497
 30
0.0
  0
VERTEX
  5
AF
330
A5
100
AcDbEntity
  8
Cut
 62
   179
420
  1842203
370
     5
100
AcDbVertex
100
AcDb2dVertex
 10
525.2607550810347
 20
-2.269773053677331
 30
0.0
  0
VERTEX
  5
B0
330
A5
100
AcDbEntity
  8
Cut
 62
   179
420
  1842203
370
     5
100
AcDbVertex
100
AcDb2dVertex
 10
527.8446096456454
 20
-4.637438841420846
 30
0.0
  0
VERTEX
  5
B1
330
A5
100
AcDbEntity
  8
Cut
 62
   179
420
  1842203
370
     5
100
AcDbVertex
100
AcDb2dVertex
 10
526.1184457093516
 20
-6.527125888526021
 30
0.0
  0
VERTEX
  5
B2
330
A5
100
AcDbEntity
  8
Cut
 62
   179
420
  1842203
370
     5
100
AcDbVertex
100
AcDb2dVertex
 10
524.6299838717384
 20
-5.146640181719979
 30
0.0
  0
VERTEX
  5
B3
330
A5
100
AcDbEntity
  8
Cut
 62
   179
420
  1842203
370
     5
100
AcDbVertex
100
AcDb2dVertex
 10
524.2131614413533
 20
-6.972527590648311
 30
0.0
  0
VERTEX
  5
B4
330
A5
100
AcDbEntity
  8
Cut
 62
   179
420
  1842203
370
     5
100
AcDbVertex
100
AcDb2dVertex
 10
529.394561151967
 20
-11.75201678975576
 30
0.0
  0
VERTEX
  5
B5
330
A5
100
AcDbEntity
  8
Cut
 62
   179
420
  1842203
370
     5
100
AcDbVertex
100
AcDb2dVertex
 10
527.6669161494481
 20
-13.6422313620486
 30
0.0
  0
VERTEX
  5
B6
330
A5
100
AcDbEntity
  8
Cut
 62
   179
420
  1842203
370
     5
100
AcDbVertex
100
AcDb2dVertex
 10
523.5592723881085
 20
-9.85551888395406
 30
0.0
  0
VERTEX
  5
B7
330
A5
100
AcDbEntity
  8
Cut
 62
   179
420
  1842203
370
     5
100
AcDbVertex
100
AcDb2dVertex
 10
522.4163681342142
 20
-14.87486820211943
 30
0.0
  0
VERTEX
  5
B8
330
A5
100
AcDbEntity
  8
Cut
 62
   179
420
  1842203
370
     5
100
AcDbVertex
100
AcDb2dVertex
 10
531.2956716304082
 20
-23.1016364980205
 30
0.0
  0
VERTEX
  5
B9
330
A5
100
AcDbEntity
  8
Cut
 62
   179
420
  1842203
370
     5
100
AcDbVertex
100
AcDb2dVertex
 10
537.7632326921139
 20
-10.46049925647659
 30
0.0
  0
SEQEND
  5
BA
330
A5
100
AcDbEntity
  8
Cut
 62
   179
420
  1842203
370
     5
  0
POLYLINE
  5
BB
330
41
100
AcDbEntity
  8
Cut
 62
   179
420
  1842203
370
     5
100
AcDb2dPolyline
 66
     1
 10
0.0
 20
0.0
 30
0.0
  0
VERTEX
  5
BC
330
BB
100
AcDbEntity
  8
Cut
 62
   179
420
  1842203
370
     5
100
AcDbVertex
100
AcDb2dVertex
 10
537.9021761913921
 20
-10.18894634383872
 30
0.0
  0
VERTEX
  5
BD
330
BB
100
AcDbEntity
  8
Cut
 62
   179
420
  1842203
370
     5
100
AcDbVertex
100
AcDb2dVertex
 10
540.129250986798
 20
-5.836028597230807
 30
0.0
  0
VERTEX
  5
BE
330
BB
100
AcDbEntity
  8
Cut
 62
   179
420
  1842203
370
     5
100
AcDbVertex
100
AcDb2dVertex
 10
539.1044883735376
 20
-4.89538849985534
 30
0.0
  0
VERTEX
  5
BF
330
BB
100
AcDbEntity
  8
Cut
 62
   179
420
  1842203
370
     5
100
AcDbVertex
100
AcDb2dVertex
 10
537.9021761913921
 20
-10.18894634383872
 30
0.0
  0
SEQEND
  5
C0
330
BB
100
AcDbEntity
  8
Cut
 62
   179
420
  1842203
370
     5
  0
POLYLINE
  5
C1
330
41
100
AcDbEntity
  8
Cut
 62
   179
420
  1842203
370
     5
100
AcDb2dPolyline
 66
     1
 10
0.0
 20
0.0
 30
0.0
  0
VERTEX
  5
C2
330
C1
100
AcDbEntity
  8
Cut
 62
   179
420
  1842203
370
     5
100
AcDbVertex
100
AcDb2dVertex
 10
508.3216360850424
 20
4.209830415047499
 30
0.0
  0
VERTEX
  5
C3
330
C1
100
AcDbEntity
  8
Cut
 62
   179
420
  1842203
370
     5
100
AcDbVertex
100
AcDb2dVertex
 10
504.1113851246083
 20
8.088247446658883
 30
0.0
  0
VERTEX
  5
C4
330
C1
100
AcDbEntity
  8
Cut
 62
   179
420
  1842203
370
     5
100
AcDbVertex
100
AcDb2dVertex
 10
505.8376922021375
 20
9.97746892625819
 30
0.0
  0
VERTEX
  5
C5
330
C1
100
AcDbEntity
  8
Cut
 62
   179
420
  1842203
370
     5
100
AcDbVertex
100
AcDb2dVertex
 10
511.1501329087717
 20
5.090036840499317
 30
0.0
  0
VERTEX
  5
C6
330
C1
100
AcDbEntity
  8
Cut
 62
   179
420
  1842203
370
     5
100
AcDbVertex
100
AcDb2dVertex
 10
512.9016354637232
 20
5.635099500122061
 30
0.0
  0
VERTEX
  5
C7
330
C1
100
AcDbEntity
  8
Cut
 62
   179
420
  1842203
370
     5
100
AcDbVertex
100
AcDb2dVertex
 10
511.5522369066975
 20
6.88735527595737
 30
0.0
  0
VERTEX
  5
C8
330
C1
100
AcDbEntity
  8
Cut
 62
   179
420
  1842203
370
     5
100
AcDbVertex
100
AcDb2dVertex
 10
513.2783922683624
 20
8.777089437623754
 30
0.0
  0
VERTEX
  5
C9
330
C1
100
AcDbEntity
  8
Cut
 62
   179
420
  1842203
370
     5
100
AcDbVertex
100
AcDb2dVertex
 10
515.7301355421397
 20
6.515309438417625
 30
0.0
  0
VERTEX
  5
CA
330
C1
100
AcDbEntity
  8
Cut
 62
   179
420
  1842203
370
     5
100
AcDbVertex
100
AcDb2dVertex
 10
518.626170707706
 20
7.416523290845489
 30
0.0
  0
VERTEX
  5
CB
330
C1
100
AcDbEntity
  8
Cut
 62
   179
420
  1842203
370
     5
100
AcDbVertex
100
AcDb2dVertex
 10
519.8285744255649
 20
12.73379867521731
 30
0.0
  0
VERTEX
  5
CC
330
C1
100
AcDbEntity
  8
Cut
 62
   179
420
  1842203
370
     5
100
AcDbVertex
100
AcDb2dVertex
 10
517.5149640241156
 20
14.86482256498584
 30
0.0
  0
VERTEX
  5
CD
330
C1
100
AcDbEntity
  8
Cut
 62
   179
420
  1842203
370
     5
100
AcDbVertex
100
AcDb2dVertex
 10
514.1701489709102
 20
13.82393064109257
 30
0.0
  0
VERTEX
  5
CE
330
C1
100
AcDbEntity
  8
Cut
 62
   179
420
  1842203
370
     5
100
AcDbVertex
100
AcDb2dVertex
 10
513.4097614177258
 20
16.2673801685963
 30
0.0
  0
VERTEX
  5
CF
330
C1
100
AcDbEntity
  8
Cut
 62
   179
420
  1842203
370
     5
100
AcDbVertex
100
AcDb2dVertex
 10
515.3404623770623
 20
16.86820111302832
 30
0.0
  0
VERTEX
  5
D0
330
C1
100
AcDbEntity
  8
Cut
 62
   179
420
  1842203
370
     5
100
AcDbVertex
100
AcDb2dVertex
 10
513.9609789291458
 20
18.13556141283374
 30
0.0
  0
VERTEX
  5
D1
330
C1
100
AcDbEntity
  8
Cut
 62
   179
420
  1842203
370
     5
100
AcDbVertex
100
AcDb2dVertex
 10
507.2038743852058
 20
16.03278274185876
 30
0.0
  0
VERTEX
  5
D2
330
C1
100
AcDbEntity
  8
Cut
 62
   179
420
  1842203
370
     5
100
AcDbVertex
100
AcDb2dVertex
 10
506.5885294222404
 20
18.0101239397376
 30
0.0
  0
VERTEX
  5
D3
330
C1
100
AcDbEntity
  8
Cut
 62
   179
420
  1842203
370
     5
100
AcDbVertex
100
AcDb2dVertex
 10
494.7437143020358
 20
10.76413730181858
 30
0.0
  0
VERTEX
  5
D4
330
C1
100
AcDbEntity
  8
Cut
 62
   179
420
  1842203
370
     5
100
AcDbVertex
100
AcDb2dVertex
 10
503.4531226085536
 20
2.694778690205535
 30
0.0
  0
VERTEX
  5
D5
330
C1
100
AcDbEntity
  8
Cut
 62
   179
420
  1842203
370
     5
100
AcDbVertex
100
AcDb2dVertex
 10
508.3216360850424
 20
4.209830415047499
 30
0.0
  0
SEQEND
  5
D6
330
C1
100
AcDbEntity
  8
Cut
 62
   179
420
  1842203
370
     5
  0
POLYLINE
  5
D7
330
41
100
AcDbEntity
  8
Cut
 62
   179
420
  1842203
370
     5
100
AcDb2dPolyline
 66
     1
 10
0.0
 20
0.0
 30
0.0
  0
VERTEX
  5
D8
330
D7
100
AcDbEntity
  8
Cut
 62
   179
420
  1842203
370
     5
100
AcDbVertex
100
AcDb2dVertex
 10
521.066076074241
 20
-9.205293294730684
 30
0.0
  0
VERTEX
  5
D9
330
D7
100
AcDbEntity
  8
Cut
 62
   179
420
  1842203
370
     5
100
AcDbVertex
100
AcDb2dVertex
 10
517.4961522942825
 20
-10.31623635691751
 30
0.0
  0
VERTEX
  5
DA
330
D7
100
AcDbEntity
  8
Cut
 62
   179
420
  1842203
370
     5
100
AcDbVertex
100
AcDb2dVertex
 10
520.2394727273099
 20
-12.85795165853224
 30
0.0
  0
VERTEX
  5
DB
330
D7
100
AcDbEntity
  8
Cut
 62
   179
420
  1842203
370
     5
100
AcDbVertex
100
AcDb2dVertex
 10
521.066076074241
 20
-9.205293294730684
 30
0.0
  0
SEQEND
  5
DC
330
D7
100
AcDbEntity
  8
Cut
 62
   179
420
  1842203
370
     5
  0
ENDBLK
  5
44
330
41
100
AcDbEntity
  8
0
100
AcDbBlockEnd
  0
BLOCK
  5
DF
330
DD
100
AcDbEntity
  8
0
100
AcDbBlockBegin
  2
block 3
 70
     0
 10
0.0
 20
0.0
 30
0.0
  3
block 3
  1

  0
POLYLINE
  5
E1
330
DD
100
AcDbEntity
  8
Cut
 62
   179
420
  1842203
370
     5
100
AcDb2dPolyline
 66
     1
 10
0.0
 20
0.0
 30
0.0
  0
VERTEX
  5
E2
330
E1
100
AcDbEntity
  8
Cut
 62
   179
420
  1842203
370
     5
100
AcDbVertex
100
AcDb2dVertex
 10
577.0782659140897
 20
-30.64454428659682
 30
0.0
  0
VERTEX
  5
E3
330
E1
100
AcDbEntity
  8
Cut
 62
   179
420
  1842203
370
     5
100
AcDbVertex
100
AcDb2dVertex
 10
576.4995714854269
 20
-28.91802773525534
 30
0.0
  0
VERTEX
  5
E4
330
E1
100
AcDbEntity
  8
Cut
 62
   179
420
  1842203
370
     5
100
AcDbVertex
100
AcDb2dVertex
 10
575.2754225004428
 20
-30.31608396846473
 30
0.0
  0
VERTEX
  5
E5
330
E1
100
AcDbEntity
  8
Cut
 62
   179
420
  1842203
370
     5
100
AcDbVertex
100
AcDb2dVertex
 10
573.3321675305092
 20
-28.61455169216164
 30
0.0
  0
VERTEX
  5
E6
330
E1
100
AcDbEntity
  8
Cut
 62
   179
420
  1842203
370
     5
100
AcDbVertex
100
AcDb2dVertex
 10
575.5321436979019
 20
-26.10205226815987
 30
0.0
  0
VERTEX
  5
E7
330
E1
100
AcDbEntity
  8
Cut
 62
   179
420
  1842203
370
     5
100
AcDbVertex
100
AcDb2dVertex
 10
574.5625635933142
 20
-23.25453769510063
 30
0.0
  0
VERTEX
  5
E8
330
E1
100
AcDbEntity
  8
Cut
 62
   179
420
  1842203
370
     5
100
AcDbVertex
100
AcDb2dVertex
 10
569.2163238922518
 20
-22.19727602785788
 30
0.0
  0
VERTEX
  5
E9
330
E1
100
AcDbEntity
  8
Cut
 62
   179
420
  1842203
370
     5
100
AcDbVertex
100
AcDb2dVertex
 10
567.15590964796
 20
-24.55039297796579
 30
0.0
  0
VERTEX
  5
EA
330
E1
100
AcDbEntity
  8
Cut
 62
   179
420
  1842203
370
     5
100
AcDbVertex
100
AcDb2dVertex
 10
568.272197428041
 20
-27.87192556553796
 30
0.0
  0
VERTEX
  5
EB
330
E1
100
AcDbEntity
  8
Cut
 62
   179
420
  1842203
370
     5
100
AcDbVertex
100
AcDb2dVertex
 10
565.8628952377338
 20
-28.69938392064686
 30
0.0
  0
VERTEX
  5
EC
330
E1
100
AcDbEntity
  8
Cut
 62
   179
420
  1842203
370
     5
100
AcDbVertex
100
AcDb2dVertex
 10
565.2044543762647
 20
-26.77906521852088
 30
0.0
  0
VERTEX
  5
ED
330
E1
100
AcDbEntity
  8
Cut
 62
   179
420
  1842203
370
     5
100
AcDbVertex
100
AcDb2dVertex
 10
563.9813712866045
 20
-28.17589390152255
 30
0.0
  0
VERTEX
  5
EE
330
E1
100
AcDbEntity
  8
Cut
 62
   179
420
  1842203
370
     5
100
AcDbVertex
100
AcDb2dVertex
 10
566.0738216331771
 20
-34.35969696807562
 30
0.0
  0
VERTEX
  5
EF
330
E1
100
AcDbEntity
  8
Cut
 62
   179
420
  1842203
370
     5
100
AcDbVertex
100
AcDb2dVertex
 10
572.6703583349363
 20
-35.67865255503468
 30
0.0
  0
VERTEX
  5
F0
330
E1
100
AcDbEntity
  8
Cut
 62
   179
420
  1842203
370
     5
100
AcDbVertex
100
AcDb2dVertex
 10
577.0782659140897
 20
-30.64454428659682
 30
0.0
  0
SEQEND
  5
F1
330
E1
100
AcDbEntity
  8
Cut
 62
   179
420
  1842203
370
     5
  0
POLYLINE
  5
F2
330
DD
100
AcDbEntity
  8
Cut
 62
   179
420
  1842203
370
     5
100
AcDb2dPolyline
 66
     1
 10
0.0
 20
0.0
 30
0.0
  0
VERTEX
  5
F3
330
F2
100
AcDbEntity
  8
Cut
 62
   179
420
  1842203
370
     5
100
AcDbVertex
100
AcDb2dVertex
 10
579.2883675232517
 20
-10.51604713692715
 30
0.0
  0
VERTEX
  5
F4
330
F2
100
AcDbEntity
  8
Cut
 62
   179
420
  1842203
370
     5
100
AcDbVertex
100
AcDb2dVertex
 10
581.0624220633285
 20
-15.72560978698748
 30
0.0
  0
VERTEX
  5
F5
330
F2
100
AcDbEntity
  8
Cut
 62
   179
420
  1842203
370
     5
100
AcDbVertex
100
AcDb2dVertex
 10
584.0813834700394
 20
-16.33830022899843
 30
0.0
  0
VERTEX
  5
F6
330
F2
100
AcDbEntity
  8
Cut
 62
   179
420
  1842203
370
     5
100
AcDbVertex
100
AcDb2dVertex
 10
586.4049781992591
 20
-13.68460618103293
 30
0.0
  0
VERTEX
  5
F7
330
F2
100
AcDbEntity
  8
Cut
 62
   179
420
  1842203
370
     5
100
AcDbVertex
100
AcDb2dVertex
 10
588.3306295099476
 20
-15.37071724478032
 30
0.0
  0
VERTEX
  5
F8
330
F2
100
AcDbEntity
  8
Cut
 62
   179
420
  1842203
370
     5
100
AcDbVertex
100
AcDb2dVertex
 10
586.9826638089437
 20
-16.91017754708473
 30
0.0
  0
VERTEX
  5
F9
330
F2
100
AcDbEntity
  8
Cut
 62
   179
420
  1842203
370
     5
100
AcDbVertex
100
AcDb2dVertex
 10
588.8203360373055
 20
-17.26912624253823
 30
0.0
  0
VERTEX
  5
FA
330
F2
100
AcDbEntity
  8
Cut
 62
   179
420
  1842203
370
     5
100
AcDbVertex
100
AcDb2dVertex
 10
591.9825532046374
 20
-13.65766842474961
 30
0.0
  0
VERTEX
  5
FB
330
F2
100
AcDbEntity
  8
Cut
 62
   179
420
  1842203
370
     5
100
AcDbVertex
100
AcDb2dVertex
 10
591.3954286913219
 20
-6.049642572452442
 30
0.0
  0
VERTEX
  5
FC
330
F2
100
AcDbEntity
  8
Cut
 62
   179
420
  1842203
370
     5
100
AcDbVertex
100
AcDb2dVertex
 10
584.4154279905599
 20
-4.660641726708239
 30
0.0
  0
VERTEX
  5
FD
330
F2
100
AcDbEntity
  8
Cut
 62
   179
420
  1842203
370
     5
100
AcDbVertex
100
AcDb2dVertex
 10
583.1912602219784
 20
-6.058694204199782
 30
0.0
  0
VERTEX
  5
FE
330
F2
100
AcDbEntity
  8
Cut
 62
   179
420
  1842203
370
     5
100
AcDbVertex
100
AcDb2dVertex
 10
585.012376028025
 20
-6.403432223893423
 30
0.0
  0
VERTEX
  5
FF
330
F2
100
AcDbEntity
  8
Cut
 62
   179
420
  1842203
370
     5
100
AcDbVertex
100
AcDb2dVertex
 10
584.5132165164958
 20
-8.93311296490518
 30
0.0
  0
VERTEX
  5
100
330
F2
100
AcDbEntity
  8
Cut
 62
   179
420
  1842203
370
     5
100
AcDbVertex
100
AcDb2dVertex
 10
581.2398040113496
 20
-8.287371140654216
 30
0.0
  0
VERTEX
  5
101
330
F2
100
AcDbEntity
  8
Cut
 62
   179
420
  1842203
370
     5
100
AcDbVertex
100
AcDb2dVertex
 10
579.2883675232517
 20
-10.51604713692715
 30
0.0
  0
SEQEND
  5
102
330
F2
100
AcDbEntity
  8
Cut
 62
   179
420
  1842203
370
     5
  0
POLYLINE
  5
103
330
DD
100
AcDbEntity
  8
Cut
 62
   179
420
  1842203
370
     5
100
AcDb2dPolyline
 66
     1
 10
0.0
 20
0.0
 30
0.0
  0
VERTEX
  5
104
330
103
100
AcDbEntity
  8
Cut
 62
   179
420
  1842203
370
     5
100
AcDbVertex
100
AcDb2dVertex
 10
559.6852381465968
 20
-33.08232093526541
 30
0.0
  0
VERTEX
  5
105
330
103
100
AcDbEntity
  8
Cut
 62
   179
420
  1842203
370
     5
100
AcDbVertex
100
AcDb2dVertex
 10
563.1592270582171
 20
-33.77693347077945
 30
0.0
  0
VERTEX
  5
106
330
103
100
AcDbEntity
  8
Cut
 62
   179
420
  1842203
370
     5
100
AcDbVertex
100
AcDb2dVertex
 10
562.0286707489885
 20
-30.40600689313512
 30
0.0
  0
VERTEX
  5
107
330
103
100
AcDbEntity
  8
Cut
 62
   179
420
  1842203
370
     5
100
AcDbVertex
100
AcDb2dVertex
 10
559.6852381465968
 20
-33.08232093526541
 30
0.0
  0
SEQEND
  5
108
330
103
100
AcDbEntity
  8
Cut
 62
   179
420
  1842203
370
     5
  0
POLYLINE
  5
109
330
DD
100
AcDbEntity
  8
Cut
 62
   179
420
  1842203
370
     5
100
AcDb2dPolyline
 66
     1
 10
0.0
 20
0.0
 30
0.0
  0
VERTEX
  5
10A
330
109
100
AcDbEntity
  8
Cut
 62
   179
420
  1842203
370
     5
100
AcDbVertex
100
AcDb2dVertex
 10
562.9732940318745
 20
-12.29416574862912
 30
0.0
  0
VERTEX
  5
10B
330
109
100
AcDbEntity
  8
Cut
 62
   179
420
  1842203
370
     5
100
AcDbVertex
100
AcDb2dVertex
 10
565.9409123432043
 20
-12.85979700048596
 30
0.0
  0
VERTEX
  5
10C
330
109
100
AcDbEntity
  8
Cut
 62
   179
420
  1842203
370
     5
100
AcDbVertex
100
AcDb2dVertex
 10
569.5342200536198
 20
-8.756023741312742
 30
0.0
  0
VERTEX
  5
10D
330
109
100
AcDbEntity
  8
Cut
 62
   179
420
  1842203
370
     5
100
AcDbVertex
100
AcDb2dVertex
 10
568.5230712398255
 20
-5.778468147732791
 30
0.0
  0
VERTEX
  5
10E
330
109
100
AcDbEntity
  8
Cut
 62
   179
420
  1842203
370
     5
100
AcDbVertex
100
AcDb2dVertex
 10
565.0833952499444
 20
-5.108717446848416
 30
0.0
  0
VERTEX
  5
10F
330
109
100
AcDbEntity
  8
Cut
 62
   179
420
  1842203
370
     5
100
AcDbVertex
100
AcDb2dVertex
 10
565.5837803048595
 20
-2.577596894960029
 30
0.0
  0
VERTEX
  5
110
330
109
100
AcDbEntity
  8
Cut
 62
   179
420
  1842203
370
     5
100
AcDbVertex
100
AcDb2dVertex
 10
567.5742350556887
 20
-2.97668540781195
 30
0.0
  0
VERTEX
  5
111
330
109
100
AcDbEntity
  8
Cut
 62
   179
420
  1842203
370
     5
100
AcDbVertex
100
AcDb2dVertex
 10
566.9766644278369
 20
-1.2354455126807
 30
0.0
  0
VERTEX
  5
112
330
109
100
AcDbEntity
  8
Cut
 62
   179
420
  1842203
370
     5
100
AcDbVertex
100
AcDb2dVertex
 10
560.569929583207
 20
0.042204766337966
 30
0.0
  0
VERTEX
  5
113
330
109
100
AcDbEntity
  8
Cut
 62
   179
420
  1842203
370
     5
100
AcDbVertex
100
AcDb2dVertex
 10
556.8657004589372
 20
-7.216575857981182
 30
0.0
  0
VERTEX
  5
114
330
109
100
AcDbEntity
  8
Cut
 62
   179
420
  1842203
370
     5
100
AcDbVertex
100
AcDb2dVertex
 10
558.2678875461987
 20
-11.36057779361009
 30
0.0
  0
VERTEX
  5
115
330
109
100
AcDbEntity
  8
Cut
 62
   179
420
  1842203
370
     5
100
AcDbVertex
100
AcDb2dVertex
 10
560.0709986499062
 20
-11.68955558084141
 30
0.0
  0
VERTEX
  5
116
330
109
100
AcDbEntity
  8
Cut
 62
   179
420
  1842203
370
     5
100
AcDbVertex
100
AcDb2dVertex
 10
559.473395149506
 20
-9.948284694777412
 30
0.0
  0
VERTEX
  5
117
330
109
100
AcDbEntity
  8
Cut
 62
   179
420
  1842203
370
     5
100
AcDbVertex
100
AcDb2dVertex
 10
561.9013396604233
 20
-9.135058509392126
 30
0.0
  0
VERTEX
  5
118
330
109
100
AcDbEntity
  8
Cut
 62
   179
420
  1842203
370
     5
100
AcDbVertex
100
AcDb2dVertex
 10
562.9732940318745
 20
-12.29416574862912
 30
0.0
  0
SEQEND
  5
119
330
109
100
AcDbEntity
  8
Cut
 62
   179
420
  1842203
370
     5
  0
POLYLINE
  5
11A
330
DD
100
AcDbEntity
  8
Cut
 62
   179
420
  1842203
370
     5
100
AcDb2dPolyline
 66
     1
 10
0.0
 20
0.0
 30
0.0
  0
VERTEX
  5
11B
330
11A
100
AcDbEntity
  8
Cut
 62
   179
420
  1842203
370
     5
100
AcDbVertex
100
AcDb2dVertex
 10
574.9037665883103
 20
-20.33464919372818
 30
0.0
  0
VERTEX
  5
11C
330
11A
100
AcDbEntity
  8
Cut
 62
   179
420
  1842203
370
     5
100
AcDbVertex
100
AcDb2dVertex
 10
578.2348855186685
 20
-16.53030343714369
 30
0.0
  0
VERTEX
  5
11D
330
11A
100
AcDbEntity
  8
Cut
 62
   179
420
  1842203
370
     5
100
AcDbVertex
100
AcDb2dVertex
 10
576.6224688551669
 20
-11.74392638387311
 30
0.0
  0
VERTEX
  5
11E
330
11A
100
AcDbEntity
  8
Cut
 62
   179
420
  1842203
370
     5
100
AcDbVertex
100
AcDb2dVertex
 10
571.64704843147
 20
-10.76191738378473
 30
0.0
  0
VERTEX
  5
11F
330
11A
100
AcDbEntity
  8
Cut
 62
   179
420
  1842203
370
     5
100
AcDbVertex
100
AcDb2dVertex
 10
568.3159107175151
 20
-14.5662593846517
 30
0.0
  0
VERTEX
  5
120
330
11A
100
AcDbEntity
  8
Cut
 62
   179
420
  1842203
370
     5
100
AcDbVertex
100
AcDb2dVertex
 10
569.946544326493
 20
-19.36821446046757
 30
0.0
  0
VERTEX
  5
121
330
11A
100
AcDbEntity
  8
Cut
 62
   179
420
  1842203
370
     5
100
AcDbVertex
100
AcDb2dVertex
 10
574.9037665883103
 20
-20.33464919372818
 30
0.0
  0
SEQEND
  5
122
330
11A
100
AcDbEntity
  8
Cut
 62
   179
420
  1842203
370
     5
  0
POLYLINE
  5
123
330
DD
100
AcDbEntity
  8
Cut
 62
   179
420
  1842203
370
     5
100
AcDb2dPolyline
 66
     1
 10
0.0
 20
0.0
 30
0.0
  0
VERTEX
  5
124
330
123
100
AcDbEntity
  8
Cut
 62
   179
420
  1842203
370
     5
100
AcDbVertex
100
AcDb2dVertex
 10
566.0096010551381
 20
1.580203141843848
 30
0.0
  0
VERTEX
  5
125
330
123
100
AcDbEntity
  8
Cut
 62
   179
420
  1842203
370
     5
100
AcDbVertex
100
AcDb2dVertex
 10
564.3587015959032
 20
6.463889411283284
 30
0.0
  0
VERTEX
  5
126
330
123
100
AcDbEntity
  8
Cut
 62
   179
420
  1842203
370
     5
100
AcDbVertex
100
AcDb2dVertex
 10
566.7839086413607
 20
7.309538431861868
 30
0.0
  0
VERTEX
  5
127
330
123
100
AcDbEntity
  8
Cut
 62
   179
420
  1842203
370
     5
100
AcDbVertex
100
AcDb2dVertex
 10
568.4756501232667
 20
2.327934484876416
 30
0.0
  0
VERTEX
  5
128
330
123
100
AcDbEntity
  8
Cut
 62
   179
420
  1842203
370
     5
100
AcDbVertex
100
AcDb2dVertex
 10
572.2551205364971
 20
6.644292846973599
 30
0.0
  0
VERTEX
  5
129
330
123
100
AcDbEntity
  8
Cut
 62
   179
420
  1842203
370
     5
100
AcDbVertex
100
AcDb2dVertex
 10
574.1795546289591
 20
4.959226078165435
 30
0.0
  0
VERTEX
  5
12A
330
123
100
AcDbEntity
  8
Cut
 62
   179
420
  1842203
370
     5
100
AcDbVertex
100
AcDb2dVertex
 10
569.4244739711097
 20
-0.4713697853119789
 30
0.0
  0
VERTEX
  5
12B
330
123
100
AcDbEntity
  8
Cut
 62
   179
420
  1842203
370
     5
100
AcDbVertex
100
AcDb2dVertex
 10
570.0210059376014
 20
-2.213798723272749
 30
0.0
  0
VERTEX
  5
12C
330
123
100
AcDbEntity
  8
Cut
 62
   179
420
  1842203
370
     5
100
AcDbVertex
100
AcDb2dVertex
 10
571.245108905025
 20
-0.8157772417233848
 30
0.0
  0
VERTEX
  5
12D
330
123
100
AcDbEntity
  8
Cut
 62
   179
420
  1842203
370
     5
100
AcDbVertex
100
AcDb2dVertex
 10
573.170392984098
 20
-2.501575580598857
 30
0.0
  0
VERTEX
  5
12E
330
123
100
AcDbEntity
  8
Cut
 62
   179
420
  1842203
370
     5
100
AcDbVertex
100
AcDb2dVertex
 10
570.9704637731942
 20
-5.014035557040928
 30
0.0
  0
VERTEX
  5
12F
330
123
100
AcDbEntity
  8
Cut
 62
   179
420
  1842203
370
     5
100
AcDbVertex
100
AcDb2dVertex
 10
571.9213376949451
 20
-7.847344260417129
 30
0.0
  0
VERTEX
  5
130
330
123
100
AcDbEntity
  8
Cut
 62
   179
420
  1842203
370
     5
100
AcDbVertex
100
AcDb2dVertex
 10
577.302011880193
 20
-8.900820245025928
 30
0.0
  0
VERTEX
  5
131
330
123
100
AcDbEntity
  8
Cut
 62
   179
420
  1842203
370
     5
100
AcDbVertex
100
AcDb2dVertex
 10
579.3466518055735
 20
-6.565729598895356
 30
0.0
  0
VERTEX
  5
132
330
123
100
AcDbEntity
  8
Cut
 62
   179
420
  1842203
370
     5
100
AcDbVertex
100
AcDb2dVertex
 10
578.2289092931575
 20
-3.245024494928292
 30
0.0
  0
VERTEX
  5
133
330
123
100
AcDbEntity
  8
Cut
 62
   179
420
  1842203
370
     5
100
AcDbVertex
100
AcDb2dVertex
 10
580.6545511931894
 20
-2.39974078929133
 30
0.0
  0
VERTEX
  5
134
330
123
100
AcDbEntity
  8
Cut
 62
   179
420
  1842203
370
     5
100
AcDbVertex
100
AcDb2dVertex
 10
581.2981080162016
 20
-4.337052662439958
 30
0.0
  0
VERTEX
  5
135
330
123
100
AcDbEntity
  8
Cut
 62
   179
420
  1842203
370
     5
100
AcDbVertex
100
AcDb2dVertex
 10
582.5371419785736
 20
-2.921998562311144
 30
0.0
  0
VERTEX
  5
136
330
123
100
AcDbEntity
  8
Cut
 62
   179
420
  1842203
370
     5
100
AcDbVertex
100
AcDb2dVertex
 10
580.2509824663141
 20
3.768056189490103
 30
0.0
  0
VERTEX
  5
137
330
123
100
AcDbEntity
  8
Cut
 62
   179
420
  1842203
370
     5
100
AcDbVertex
100
AcDb2dVertex
 10
582.6938128935449
 20
4.598284937694479
 30
0.0
  0
VERTEX
  5
138
330
123
100
AcDbEntity
  8
Cut
 62
   179
420
  1842203
370
     5
100
AcDbVertex
100
AcDb2dVertex
 10
584.4885981891985
 20
-0.6933216258560673
 30
0.0
  0
VERTEX
  5
139
330
123
100
AcDbEntity
  8
Cut
 62
   179
420
  1842203
370
     5
100
AcDbVertex
100
AcDb2dVertex
 10
587.8959113002368
 20
3.19802338044822
 30
0.0
  0
VERTEX
  5
13A
330
123
100
AcDbEntity
  8
Cut
 62
   179
420
  1842203
370
     5
100
AcDbVertex
100
AcDb2dVertex
 10
589.8207793083392
 20
1.512586600798445
 30
0.0
  0
VERTEX
  5
13B
330
123
100
AcDbEntity
  8
Cut
 62
   179
420
  1842203
370
     5
100
AcDbVertex
100
AcDb2dVertex
 10
586.3670616939212
 20
-2.431760981203693
 30
0.0
  0
VERTEX
  5
13C
330
123
100
AcDbEntity
  8
Cut
 62
   179
420
  1842203
370
     5
100
AcDbVertex
100
AcDb2dVertex
 10
591.1908739206862
 20
-3.399020572183997
 30
0.0
  0
VERTEX
  5
13D
330
123
100
AcDbEntity
  8
Cut
 62
   179
420
  1842203
370
     5
100
AcDbVertex
100
AcDb2dVertex
 10
586.9378358720975
 20
51.71256846534806
 30
0.0
  0
VERTEX
  5
13E
330
123
100
AcDbEntity
  8
Cut
 62
   179
420
  1842203
370
     5
100
AcDbVertex
100
AcDb2dVertex
 10
561.7798941678423
 20
2.413231289926979
 30
0.0
  0
VERTEX
  5
13F
330
123
100
AcDbEntity
  8
Cut
 62
   179
420
  1842203
370
     5
100
AcDbVertex
100
AcDb2dVertex
 10
566.0096010551381
 20
1.580203141843848
 30
0.0
  0
SEQEND
  5
140
330
123
100
AcDbEntity
  8
Cut
 62
   179
420
  1842203
370
     5
  0
POLYLINE
  5
141
330
DD
100
AcDbEntity
  8
Cut
 62
   179
420
  1842203
370
     5
100
AcDb2dPolyline
 66
     1
 10
0.0
 20
0.0
 30
0.0
  0
VERTEX
  5
142
330
141
100
AcDbEntity
  8
Cut
 62
   179
420
  1842203
370
     5
100
AcDbVertex
100
AcDb2dVertex
 10
592.9186911489346
 20
-25.78822080847048
 30
0.0
  0
VERTEX
  5
143
330
141
100
AcDbEntity
  8
Cut
 62
   179
420
  1842203
370
     5
100
AcDbVertex
100
AcDb2dVertex
 10
590.562817260844
 20
-26.57600681069389
 30
0.0
  0
VERTEX
  5
144
330
141
100
AcDbEntity
  8
Cut
 62
   179
420
  1842203
370
     5
100
AcDbVertex
100
AcDb2dVertex
 10
588.2528391966649
 20
-19.77108805914383
 30
0.0
  0
VERTEX
  5
145
330
141
100
AcDbEntity
  8
Cut
 62
   179
420
  1842203
370
     5
100
AcDbVertex
100
AcDb2dVertex
 10
586.4468929638075
 20
-19.40988278914494
 30
0.0
  0
VERTEX
  5
146
330
141
100
AcDbEntity
  8
Cut
 62
   179
420
  1842203
370
     5
100
AcDbVertex
100
AcDb2dVertex
 10
587.0285117800187
 20
-21.16935279730397
 30
0.0
  0
VERTEX
  5
147
330
141
100
AcDbEntity
  8
Cut
 62
   179
420
  1842203
370
     5
100
AcDbVertex
100
AcDb2dVertex
 10
584.6012217931135
 20
-21.98106406746934
 30
0.0
  0
VERTEX
  5
148
330
141
100
AcDbEntity
  8
Cut
 62
   179
420
  1842203
370
     5
100
AcDbVertex
100
AcDb2dVertex
 10
583.5466335667961
 20
-18.83924981933014
 30
0.0
  0
VERTEX
  5
149
330
141
100
AcDbEntity
  8
Cut
 62
   179
420
  1842203
370
     5
100
AcDbVertex
100
AcDb2dVertex
 10
580.6127659786206
 20
-18.26895385651697
 30
0.0
  0
VERTEX
  5
14A
330
141
100
AcDbEntity
  8
Cut
 62
   179
420
  1842203
370
     5
100
AcDbVertex
100
AcDb2dVertex
 10
576.9877894223722
 20
-22.40889243024022
 30
0.0
  0
VERTEX
  5
14B
330
141
100
AcDbEntity
  8
Cut
 62
   179
420
  1842203
370
     5
100
AcDbVertex
100
AcDb2dVertex
 10
577.9788676233213
 20
-25.33920503118068
 30
0.0
  0
VERTEX
  5
14C
330
141
100
AcDbEntity
  8
Cut
 62
   179
420
  1842203
370
     5
100
AcDbVertex
100
AcDb2dVertex
 10
581.4191662035918
 20
-26.00740513001113
 30
0.0
  0
VERTEX
  5
14D
330
141
100
AcDbEntity
  8
Cut
 62
   179
420
  1842203
370
     5
100
AcDbVertex
100
AcDb2dVertex
 10
580.9350983140698
 20
-28.52061768554556
 30
0.0
  0
VERTEX
  5
14E
330
141
100
AcDbEntity
  8
Cut
 62
   179
420
  1842203
370
     5
100
AcDbVertex
100
AcDb2dVertex
 10
578.9446153903477
 20
-28.12157237597247
 30
0.0
  0
VERTEX
  5
14F
330
141
100
AcDbEntity
  8
Cut
 62
   179
420
  1842203
370
     5
100
AcDbVertex
100
AcDb2dVertex
 10
579.5435006849417
 20
-29.89609827673519
 30
0.0
  0
VERTEX
  5
150
330
141
100
AcDbEntity
  8
Cut
 62
   179
420
  1842203
370
     5
100
AcDbVertex
100
AcDb2dVertex
 10
586.458847770095
 20
-31.26299061244347
 30
0.0
  0
VERTEX
  5
151
330
141
100
AcDbEntity
  8
Cut
 62
   179
420
  1842203
370
     5
100
AcDbVertex
100
AcDb2dVertex
 10
585.9737928753574
 20
-33.77742695745835
 30
0.0
  0
VERTEX
  5
152
330
141
100
AcDbEntity
  8
Cut
 62
   179
420
  1842203
370
     5
100
AcDbVertex
100
AcDb2dVertex
 10
580.4927396648284
 20
-32.69576880204702
 30
0.0
  0
VERTEX
  5
153
330
141
100
AcDbEntity
  8
Cut
 62
   179
420
  1842203
370
     5
100
AcDbVertex
100
AcDb2dVertex
 10
582.141574465574
 20
-37.57239073850835
 30
0.0
  0
VERTEX
  5
154
330
141
100
AcDbEntity
  8
Cut
 62
   179
420
  1842203
370
     5
100
AcDbVertex
100
AcDb2dVertex
 10
594.0112494610601
 20
-39.9456927996502
 30
0.0
  0
VERTEX
  5
155
330
141
100
AcDbEntity
  8
Cut
 62
   179
420
  1842203
370
     5
100
AcDbVertex
100
AcDb2dVertex
 10
592.9186911489346
 20
-25.78822080847048
 30
0.0
  0
SEQEND
  5
156
330
141
100
AcDbEntity
  8
Cut
 62
   179
420
  1842203
370
     5
  0
POLYLINE
  5
157
330
DD
100
AcDbEntity
  8
Cut
 62
   179
420
  1842203
370
     5
100
AcDb2dPolyline
 66
     1
 10
0.0
 20
0.0
 30
0.0
  0
VERTEX
  5
158
330
157
100
AcDbEntity
  8
Cut
 62
   179
420
  1842203
370
     5
100
AcDbVertex
100
AcDb2dVertex
 10
592.8952291690206
 20
-25.48408956073061
 30
0.0
  0
VERTEX
  5
159
330
157
100
AcDbEntity
  8
Cut
 62
   179
420
  1842203
370
     5
100
AcDbVertex
100
AcDb2dVertex
 10
592.5190115002931
 20
-20.60902901558744
 30
0.0
  0
VERTEX
  5
15A
330
157
100
AcDbEntity
  8
Cut
 62
   179
420
  1842203
370
     5
100
AcDbVertex
100
AcDb2dVertex
 10
591.1537353982212
 20
-20.34263950484006
 30
0.0
  0
VERTEX
  5
15B
330
157
100
AcDbEntity
  8
Cut
 62
   179
420
  1842203
370
     5
100
AcDbVertex
100
AcDb2dVertex
 10
592.8952291690206
 20
-25.48408956073061
 30
0.0
  0
SEQEND
  5
15C
330
157
100
AcDbEntity
  8
Cut
 62
   179
420
  1842203
370
     5
  0
POLYLINE
  5
15D
330
DD
100
AcDbEntity
  8
Cut
 62
   179
420
  1842203
370
     5
100
AcDb2dPolyline
 66
     1
 10
0.0
 20
0.0
 30
0.0
  0
VERTEX
  5
15E
330
15D
100
AcDbEntity
  8
Cut
 62
   179
420
  1842203
370
     5
100
AcDbVertex
100
AcDb2dVertex
 10
560.1508008079727
 20
-28.66772528796148
 30
0.0
  0
VERTEX
  5
15F
330
15D
100
AcDbEntity
  8
Cut
 62
   179
420
  1842203
370
     5
100
AcDbVertex
100
AcDb2dVertex
 10
554.5343414632001
 20
-27.56150819830632
 30
0.0
  0
VERTEX
  5
160
330
15D
100
AcDbEntity
  8
Cut
 62
   179
420
  1842203
370
     5
100
AcDbVertex
100
AcDb2dVertex
 10
555.018774706474
 20
-25.04861775944539
 30
0.0
  0
VERTEX
  5
161
330
15D
100
AcDbEntity
  8
Cut
 62
   179
420
  1842203
370
     5
100
AcDbVertex
100
AcDb2dVertex
 10
562.1022560796719
 20
-26.43905304740607
 30
0.0
  0
VERTEX
  5
162
330
15D
100
AcDbEntity
  8
Cut
 62
   179
420
  1842203
370
     5
100
AcDbVertex
100
AcDb2dVertex
 10
563.310659857571
 20
-25.05897521899681
 30
0.0
  0
VERTEX
  5
163
330
15D
100
AcDbEntity
  8
Cut
 62
   179
420
  1842203
370
     5
100
AcDbVertex
100
AcDb2dVertex
 10
561.5057532250031
 20
-24.69657621026841
 30
0.0
  0
VERTEX
  5
164
330
15D
100
AcDbEntity
  8
Cut
 62
   179
420
  1842203
370
     5
100
AcDbVertex
100
AcDb2dVertex
 10
561.9897891809037
 20
-22.18332796790155
 30
0.0
  0
VERTEX
  5
165
330
15D
100
AcDbEntity
  8
Cut
 62
   179
420
  1842203
370
     5
100
AcDbVertex
100
AcDb2dVertex
 10
565.2621160681958
 20
-22.83029828254173
 30
0.0
  0
VERTEX
  5
166
330
15D
100
AcDbEntity
  8
Cut
 62
   179
420
  1842203
370
     5
100
AcDbVertex
100
AcDb2dVertex
 10
567.2601730585347
 20
-20.54841871705815
 30
0.0
  0
VERTEX
  5
167
330
15D
100
AcDbEntity
  8
Cut
 62
   179
420
  1842203
370
     5
100
AcDbVertex
100
AcDb2dVertex
 10
565.5063619694538
 20
-15.38670011975272
 30
0.0
  0
VERTEX
  5
168
330
15D
100
AcDbEntity
  8
Cut
 62
   179
420
  1842203
370
     5
100
AcDbVertex
100
AcDb2dVertex
 10
562.4201383832064
 20
-14.77901608659158
 30
0.0
  0
VERTEX
  5
169
330
15D
100
AcDbEntity
  8
Cut
 62
   179
420
  1842203
370
     5
100
AcDbVertex
100
AcDb2dVertex
 10
560.112467292734
 20
-17.41452322480718
 30
0.0
  0
VERTEX
  5
16A
330
15D
100
AcDbEntity
  8
Cut
 62
   179
420
  1842203
370
     5
100
AcDbVertex
100
AcDb2dVertex
 10
558.1871832136577
 20
-15.72872488593234
 30
0.0
  0
VERTEX
  5
16B
330
15D
100
AcDbEntity
  8
Cut
 62
   179
420
  1842203
370
     5
100
AcDbVertex
100
AcDb2dVertex
 10
559.5192243369843
 20
-14.20745618927784
 30
0.0
  0
VERTEX
  5
16C
330
15D
100
AcDbEntity
  8
Cut
 62
   179
420
  1842203
370
     5
100
AcDbVertex
100
AcDb2dVertex
 10
557.6807744446207
 20
-13.84790270803735
 30
0.0
  0
VERTEX
  5
16D
330
15D
100
AcDbEntity
  8
Cut
 62
   179
420
  1842203
370
     5
100
AcDbVertex
100
AcDb2dVertex
 10
553.0188784404572
 20
-19.17208016593928
 30
0.0
  0
VERTEX
  5
16E
330
15D
100
AcDbEntity
  8
Cut
 62
   179
420
  1842203
370
     5
100
AcDbVertex
100
AcDb2dVertex
 10
551.4608517869489
 20
-17.80786589272616
 30
0.0
  0
VERTEX
  5
16F
330
15D
100
AcDbEntity
  8
Cut
 62
   179
420
  1842203
370
     5
100
AcDbVertex
100
AcDb2dVertex
 10
545.1493253109587
 20
-30.17591348042608
 30
0.0
  0
VERTEX
  5
170
330
15D
100
AcDbEntity
  8
Cut
 62
   179
420
  1842203
370
     5
100
AcDbVertex
100
AcDb2dVertex
 10
556.7918878211487
 20
-32.50380515504379
 30
0.0
  0
VERTEX
  5
171
330
15D
100
AcDbEntity
  8
Cut
 62
   179
420
  1842203
370
     5
100
AcDbVertex
100
AcDb2dVertex
 10
560.1508008079727
 20
-28.66772528796148
 30
0.0
  0
SEQEND
  5
172
330
15D
100
AcDbEntity
  8
Cut
 62
   179
420
  1842203
370
     5
  0
POLYLINE
  5
173
330
DD
100
AcDbEntity
  8
Cut
 62
   179
420
  1842203
370
     5
100
AcDb2dPolyline
 66
     1
 10
0.0
 20
0.0
 30
0.0
  0
VERTEX
  5
174
330
173
100
AcDbEntity
  8
Cut
 62
   179
420
  1842203
370
     5
100
AcDbVertex
100
AcDb2dVertex
 10
578.0273086176427
 20
-33.44441486524252
 30
0.0
  0
VERTEX
  5
175
330
173
100
AcDbEntity
  8
Cut
 62
   179
420
  1842203
370
     5
100
AcDbVertex
100
AcDb2dVertex
 10
575.5643285191206
 20
-36.25729227395079
 30
0.0
  0
VERTEX
  5
176
330
173
100
AcDbEntity
  8
Cut
 62
   179
420
  1842203
370
     5
100
AcDbVertex
100
AcDb2dVertex
 10
579.2315443049686
 20
-36.99053988068908
 30
0.0
  0
VERTEX
  5
177
330
173
100
AcDbEntity
  8
Cut
 62
   179
420
  1842203
370
     5
100
AcDbVertex
100
AcDb2dVertex
 10
578.0273086176427
 20
-33.44441486524252
 30
0.0
  0
SEQEND
  5
178
330
173
100
AcDbEntity
  8
Cut
 62
   179
420
  1842203
370
     5
  0
ENDBLK
  5
E0
330
DD
100
AcDbEntity
  8
0
100
AcDbBlockEnd
  0
BLOCK
  5
17B
330
179
100
AcDbEntity
  8
0
100
AcDbBlockBegin
  2
block 4
 70
     0
 10
0.0
 20
0.0
 30
0.0
  3
block 4
  1

  0
POLYLINE
  5
17D
330
179
100
AcDbEntity
  8
Cut
 62
   179
420
  1842203
370
     5
100
AcDb2dPolyline
 66
     1
 10
0.0
 20
0.0
 30
0.0
  0
VERTEX
  5
17E
330
17D
100
AcDbEntity
  8
Cut
 62
   179
420
  1842203
370
     5
100
AcDbVertex
100
AcDb2dVertex
 10
487.2179719434002
 20
43.34850339780169
 30
0.0
  0
VERTEX
  5
17F
330
17D
100
AcDbEntity
  8
Cut
 62
   179
420
  1842203
370
     5
100
AcDbVertex
100
AcDb2dVertex
 10
488.4932505295151
 20
44.64827690561816
 30
0.0
  0
VERTEX
  5
180
330
17D
100
AcDbEntity
  8
Cut
 62
   179
420
  1842203
370
     5
100
AcDbVertex
100
AcDb2dVertex
 10
486.6917030520526
 20
45.10383003655327
 30
0.0
  0
VERTEX
  5
181
330
17D
100
AcDbEntity
  8
Cut
 62
   179
420
  1842203
370
     5
100
AcDbVertex
100
AcDb2dVertex
 10
487.3249105094512
 20
47.60792673623756
 30
0.0
  0
VERTEX
  5
182
330
17D
100
AcDbEntity
  8
Cut
 62
   179
420
  1842203
370
     5
100
AcDbVertex
100
AcDb2dVertex
 10
490.5625446696957
 20
46.78922438670674
 30
0.0
  0
VERTEX
  5
183
330
17D
100
AcDbEntity
  8
Cut
 62
   179
420
  1842203
370
     5
100
AcDbVertex
100
AcDb2dVertex
 10
492.658959014552
 20
48.94641508705514
 30
0.0
  0
VERTEX
  5
184
330
17D
100
AcDbEntity
  8
Cut
 62
   179
420
  1842203
370
     5
100
AcDbVertex
100
AcDb2dVertex
 10
491.1724837674228
 20
54.18955083905438
 30
0.0
  0
VERTEX
  5
185
330
17D
100
AcDbEntity
  8
Cut
 62
   179
420
  1842203
370
     5
100
AcDbVertex
100
AcDb2dVertex
 10
488.1402336997671
 20
54.95631401381293
 30
0.0
  0
VERTEX
  5
186
330
17D
100
AcDbEntity
  8
Cut
 62
   179
420
  1842203
370
     5
100
AcDbVertex
100
AcDb2dVertex
 10
485.688159854256
 20
52.45311386312084
 30
0.0
  0
VERTEX
  5
187
330
17D
100
AcDbEntity
  8
Cut
 62
   179
420
  1842203
370
     5
100
AcDbVertex
100
AcDb2dVertex
 10
483.8566293619079
 20
54.22368451386215
 30
0.0
  0
VERTEX
  5
188
330
17D
100
AcDbEntity
  8
Cut
 62
   179
420
  1842203
370
     5
100
AcDbVertex
100
AcDb2dVertex
 10
485.2683415424315
 20
55.68253234867999
 30
0.0
  0
VERTEX
  5
189
330
17D
100
AcDbEntity
  8
Cut
 62
   179
420
  1842203
370
     5
100
AcDbVertex
100
AcDb2dVertex
 10
483.4683718283167
 20
56.13769346535781
 30
0.0
  0
VERTEX
  5
18A
330
17D
100
AcDbEntity
  8
Cut
 62
   179
420
  1842203
370
     5
100
AcDbVertex
100
AcDb2dVertex
 10
478.9097276644574
 20
51.46473592156232
 30
0.0
  0
VERTEX
  5
18B
330
17D
100
AcDbEntity
  8
Cut
 62
   179
420
  1842203
370
     5
100
AcDbVertex
100
AcDb2dVertex
 10
480.7309746989258
 20
44.988857638468
 30
0.0
  0
VERTEX
  5
18C
330
17D
100
AcDbEntity
  8
Cut
 62
   179
420
  1842203
370
     5
100
AcDbVertex
100
AcDb2dVertex
 10
487.2179719434002
 20
43.34850339780169
 30
0.0
  0
SEQEND
  5
18D
330
17D
100
AcDbEntity
  8
Cut
 62
   179
420
  1842203
370
     5
  0
POLYLINE
  5
18E
330
179
100
AcDbEntity
  8
Cut
 62
   179
420
  1842203
370
     5
100
AcDb2dPolyline
 66
     1
 10
0.0
 20
0.0
 30
0.0
  0
VERTEX
  5
18F
330
18E
100
AcDbEntity
  8
Cut
 62
   179
420
  1842203
370
     5
100
AcDbVertex
100
AcDb2dVertex
 10
506.1540989139393
 20
50.52234769377664
 30
0.0
  0
VERTEX
  5
190
330
18E
100
AcDbEntity
  8
Cut
 62
   179
420
  1842203
370
     5
100
AcDbVertex
100
AcDb2dVertex
 10
502.3187722811786
 20
46.57556645634964
 30
0.0
  0
VERTEX
  5
191
330
18E
100
AcDbEntity
  8
Cut
 62
   179
420
  1842203
370
     5
100
AcDbVertex
100
AcDb2dVertex
 10
503.1442108651245
 20
43.60771054726827
 30
0.0
  0
VERTEX
  5
192
330
18E
100
AcDbEntity
  8
Cut
 62
   179
420
  1842203
370
     5
100
AcDbVertex
100
AcDb2dVertex
 10
506.5637839480375
 20
42.7430114687076
 30
0.0
  0
VERTEX
  5
193
330
18E
100
AcDbEntity
  8
Cut
 62
   179
420
  1842203
370
     5
100
AcDbVertex
100
AcDb2dVertex
 10
505.9363191120298
 20
40.26160231880462
 30
0.0
  0
VERTEX
  5
194
330
18E
100
AcDbEntity
  8
Cut
 62
   179
420
  1842203
370
     5
100
AcDbVertex
100
AcDb2dVertex
 10
503.9525561136709
 20
40.76323357759166
 30
0.0
  0
VERTEX
  5
195
330
18E
100
AcDbEntity
  8
Cut
 62
   179
420
  1842203
370
     5
100
AcDbVertex
100
AcDb2dVertex
 10
504.4674832548209
 20
38.9630298601851
 30
0.0
  0
VERTEX
  5
196
330
18E
100
AcDbEntity
  8
Cut
 62
   179
420
  1842203
370
     5
100
AcDbVertex
100
AcDb2dVertex
 10
509.1212377288938
 20
37.78624853891851
 30
0.0
  0
VERTEX
  5
197
330
18E
100
AcDbEntity
  8
Cut
 62
   179
420
  1842203
370
     5
100
AcDbVertex
100
AcDb2dVertex
 10
515.6324574643503
 20
41.76504108439381
 30
0.0
  0
VERTEX
  5
198
330
18E
100
AcDbEntity
  8
Cut
 62
   179
420
  1842203
370
     5
100
AcDbVertex
100
AcDb2dVertex
 10
513.6994353160729
 20
48.61435918960417
 30
0.0
  0
VERTEX
  5
199
330
18E
100
AcDbEntity
  8
Cut
 62
   179
420
  1842203
370
     5
100
AcDbVertex
100
AcDb2dVertex
 10
511.8978826526214
 20
49.06993076056427
 30
0.0
  0
VERTEX
  5
19A
330
18E
100
AcDbEntity
  8
Cut
 62
   179
420
  1842203
370
     5
100
AcDbVertex
100
AcDb2dVertex
 10
512.4179496392605
 20
47.29093176937138
 30
0.0
  0
VERTEX
  5
19B
330
18E
100
AcDbEntity
  8
Cut
 62
   179
420
  1842203
370
     5
100
AcDbVertex
100
AcDb2dVertex
 10
509.9375565596352
 20
46.58659162430649
 30
0.0
  0
VERTEX
  5
19C
330
18E
100
AcDbEntity
  8
Cut
 62
   179
420
  1842203
370
     5
100
AcDbVertex
100
AcDb2dVertex
 10
509.0259858852821
 20
49.7961477989336
 30
0.0
  0
VERTEX
  5
19D
330
18E
100
AcDbEntity
  8
Cut
 62
   179
420
  1842203
370
     5
100
AcDbVertex
100
AcDb2dVertex
 10
506.1540989139393
 20
50.52234769377664
 30
0.0
  0
SEQEND
  5
19E
330
18E
100
AcDbEntity
  8
Cut
 62
   179
420
  1842203
370
     5
  0
POLYLINE
  5
19F
330
179
100
AcDbEntity
  8
Cut
 62
   179
420
  1842203
370
     5
100
AcDb2dPolyline
 66
     1
 10
0.0
 20
0.0
 30
0.0
  0
VERTEX
  5
1A0
330
19F
100
AcDbEntity
  8
Cut
 62
   179
420
  1842203
370
     5
100
AcDbVertex
100
AcDb2dVertex
 10
477.1458947237139
 20
57.73646469849101
 30
0.0
  0
VERTEX
  5
1A1
330
19F
100
AcDbEntity
  8
Cut
 62
   179
420
  1842203
370
     5
100
AcDbVertex
100
AcDb2dVertex
 10
478.1050331760763
 20
54.32601913203561
 30
0.0
  0
VERTEX
  5
1A2
330
19F
100
AcDbEntity
  8
Cut
 62
   179
420
  1842203
370
     5
100
AcDbVertex
100
AcDb2dVertex
 10
480.5946304953995
 20
56.86436677328056
 30
0.0
  0
VERTEX
  5
1A3
330
19F
100
AcDbEntity
  8
Cut
 62
   179
420
  1842203
370
     5
100
AcDbVertex
100
AcDb2dVertex
 10
477.1458947237139
 20
57.73646469849101
 30
0.0
  0
SEQEND
  5
1A4
330
19F
100
AcDbEntity
  8
Cut
 62
   179
420
  1842203
370
     5
  0
POLYLINE
  5
1A5
330
179
100
AcDbEntity
  8
Cut
 62
   179
420
  1842203
370
     5
100
AcDb2dPolyline
 66
     1
 10
0.0
 20
0.0
 30
0.0
  0
VERTEX
  5
1A6
330
1A5
100
AcDbEntity
  8
Cut
 62
   179
420
  1842203
370
     5
100
AcDbVertex
100
AcDb2dVertex
 10
497.1593337502202
 20
64.24960264426927
 30
0.0
  0
VERTEX
  5
1A7
330
1A5
100
AcDbEntity
  8
Cut
 62
   179
420
  1842203
370
     5
100
AcDbVertex
100
AcDb2dVertex
 10
498.0033756909884
 20
61.34886302185687
 30
0.0
  0
VERTEX
  5
1A8
330
1A5
100
AcDbEntity
  8
Cut
 62
   179
420
  1842203
370
     5
100
AcDbVertex
100
AcDb2dVertex
 10
503.2915390883501
 20
60.01164832434904
 30
0.0
  0
VERTEX
  5
1A9
330
1A5
100
AcDbEntity
  8
Cut
 62
   179
420
  1842203
370
     5
100
AcDbVertex
100
AcDb2dVertex
 10
505.4849241041019
 20
62.26493956366101
 30
0.0
  0
VERTEX
  5
1AA
330
1A5
100
AcDbEntity
  8
Cut
 62
   179
420
  1842203
370
     5
100
AcDbVertex
100
AcDb2dVertex
 10
504.5192221951905
 20
65.63352335211522
 30
0.0
  0
VERTEX
  5
1AB
330
1A5
100
AcDbEntity
  8
Cut
 62
   179
420
  1842203
370
     5
100
AcDbVertex
100
AcDb2dVertex
 10
507.0014546544008
 20
66.33742566765265
 30
0.0
  0
VERTEX
  5
1AC
330
1A5
100
AcDbEntity
  8
Cut
 62
   179
420
  1842203
370
     5
100
AcDbVertex
100
AcDb2dVertex
 10
507.5500188122651
 20
64.38287735131422
 30
0.0
  0
VERTEX
  5
1AD
330
1A5
100
AcDbEntity
  8
Cut
 62
   179
420
  1842203
370
     5
100
AcDbVertex
100
AcDb2dVertex
 10
508.8298402811804
 20
65.70615511330156
 30
0.0
  0
VERTEX
  5
1AE
330
1A5
100
AcDbEntity
  8
Cut
 62
   179
420
  1842203
370
     5
100
AcDbVertex
100
AcDb2dVertex
 10
507.0580069237574
 20
71.99417929887937
 30
0.0
  0
VERTEX
  5
1AF
330
1A5
100
AcDbEntity
  8
Cut
 62
   179
420
  1842203
370
     5
100
AcDbVertex
100
AcDb2dVertex
 10
498.9087001562368
 20
71.99714002896783
 30
0.0
  0
VERTEX
  5
1B0
330
1A5
100
AcDbEntity
  8
Cut
 62
   179
420
  1842203
370
     5
100
AcDbVertex
100
AcDb2dVertex
 10
495.8537592990471
 20
68.86565203933033
 30
0.0
  0
VERTEX
  5
1B1
330
1A5
100
AcDbEntity
  8
Cut
 62
   179
420
  1842203
370
     5
100
AcDbVertex
100
AcDb2dVertex
 10
496.3796887736322
 20
67.10985187286336
 30
0.0
  0
VERTEX
  5
1B2
330
1A5
100
AcDbEntity
  8
Cut
 62
   179
420
  1842203
370
     5
100
AcDbVertex
100
AcDb2dVertex
 10
497.6595229205973
 20
68.43317299738447
 30
0.0
  0
VERTEX
  5
1B3
330
1A5
100
AcDbEntity
  8
Cut
 62
   179
420
  1842203
370
     5
100
AcDbVertex
100
AcDb2dVertex
 10
499.4868418788615
 20
66.63952955415132
 30
0.0
  0
VERTEX
  5
1B4
330
1A5
100
AcDbEntity
  8
Cut
 62
   179
420
  1842203
370
     5
100
AcDbVertex
100
AcDb2dVertex
 10
497.1593337502202
 20
64.24960264426927
 30
0.0
  0
SEQEND
  5
1B5
330
1A5
100
AcDbEntity
  8
Cut
 62
   179
420
  1842203
370
     5
  0
POLYLINE
  5
1B6
330
179
100
AcDbEntity
  8
Cut
 62
   179
420
  1842203
370
     5
100
AcDb2dPolyline
 66
     1
 10
0.0
 20
0.0
 30
0.0
  0
VERTEX
  5
1B7
330
1B6
100
AcDbEntity
  8
Cut
 62
   179
420
  1842203
370
     5
100
AcDbVertex
100
AcDb2dVertex
 10
495.4152365180546
 20
49.96871771736291
 30
0.0
  0
VERTEX
  5
1B8
330
1B6
100
AcDbEntity
  8
Cut
 62
   179
420
  1842203
370
     5
100
AcDbVertex
100
AcDb2dVertex
 10
500.3175515154202
 20
48.72907759601908
 30
0.0
  0
VERTEX
  5
1B9
330
1B6
100
AcDbEntity
  8
Cut
 62
   179
420
  1842203
370
     5
100
AcDbVertex
100
AcDb2dVertex
 10
503.8492862952844
 20
52.33963741929729
 30
0.0
  0
VERTEX
  5
1BA
330
1B6
100
AcDbEntity
  8
Cut
 62
   179
420
  1842203
370
     5
100
AcDbVertex
100
AcDb2dVertex
 10
502.4642034344669
 20
57.21823307147766
 30
0.0
  0
VERTEX
  5
1BB
330
1B6
100
AcDbEntity
  8
Cut
 62
   179
420
  1842203
370
     5
100
AcDbVertex
100
AcDb2dVertex
 10
497.5618832511129
 20
58.45789163284518
 30
0.0
  0
VERTEX
  5
1BC
330
1B6
100
AcDbEntity
  8
Cut
 62
   179
420
  1842203
370
     5
100
AcDbVertex
100
AcDb2dVertex
 10
494.0245447174816
 20
54.82402666350889
 30
0.0
  0
VERTEX
  5
1BD
330
1B6
100
AcDbEntity
  8
Cut
 62
   179
420
  1842203
370
     5
100
AcDbVertex
100
AcDb2dVertex
 10
495.4152365180546
 20
49.96871771736291
 30
0.0
  0
SEQEND
  5
1BE
330
1B6
100
AcDbEntity
  8
Cut
 62
   179
420
  1842203
370
     5
  0
POLYLINE
  5
1BF
330
179
100
AcDbEntity
  8
Cut
 62
   179
420
  1842203
370
     5
100
AcDb2dPolyline
 66
     1
 10
0.0
 20
0.0
 30
0.0
  0
VERTEX
  5
1C0
330
1BF
100
AcDbEntity
  8
Cut
 62
   179
420
  1842203
370
     5
100
AcDbVertex
100
AcDb2dVertex
 10
510.8990087928253
 20
67.84662949599257
 30
0.0
  0
VERTEX
  5
1C1
330
1BF
100
AcDbEntity
  8
Cut
 62
   179
420
  1842203
370
     5
100
AcDbVertex
100
AcDb2dVertex
 10
514.499955537063
 20
71.5356731590549
 30
0.0
  0
VERTEX
  5
1C2
330
1BF
100
AcDbEntity
  8
Cut
 62
   179
420
  1842203
370
     5
100
AcDbVertex
100
AcDb2dVertex
 10
516.354916217344
 20
69.75919564612147
 30
0.0
  0
VERTEX
  5
1C3
330
1BF
100
AcDbEntity
  8
Cut
 62
   179
420
  1842203
370
     5
100
AcDbVertex
100
AcDb2dVertex
 10
512.6852870492777
 20
65.98928995829317
 30
0.0
  0
VERTEX
  5
1C4
330
1BF
100
AcDbEntity
  8
Cut
 62
   179
420
  1842203
370
     5
100
AcDbVertex
100
AcDb2dVertex
 10
518.2473992435048
 20
64.58278576229374
 30
0.0
  0
VERTEX
  5
1C5
330
1BF
100
AcDbEntity
  8
Cut
 62
   179
420
  1842203
370
     5
100
AcDbVertex
100
AcDb2dVertex
 10
517.6203118712207
 20
62.10293535972985
 30
0.0
  0
VERTEX
  5
1C6
330
1BF
100
AcDbEntity
  8
Cut
 62
   179
420
  1842203
370
     5
100
AcDbVertex
100
AcDb2dVertex
 10
510.6223947784278
 20
63.87248893547985
 30
0.0
  0
VERTEX
  5
1C7
330
1BF
100
AcDbEntity
  8
Cut
 62
   179
420
  1842203
370
     5
100
AcDbVertex
100
AcDb2dVertex
 10
509.3410422222088
 20
62.54959641620336
 30
0.0
  0
VERTEX
  5
1C8
330
1BF
100
AcDbEntity
  8
Cut
 62
   179
420
  1842203
370
     5
100
AcDbVertex
100
AcDb2dVertex
 10
511.1425378376358
 20
62.09406849683904
 30
0.0
  0
VERTEX
  5
1C9
330
1BF
100
AcDbEntity
  8
Cut
 62
   179
420
  1842203
370
     5
100
AcDbVertex
100
AcDb2dVertex
 10
510.5151848001443
 20
59.61312855584109
 30
0.0
  0
VERTEX
  5
1CA
330
1BF
100
AcDbEntity
  8
Cut
 62
   179
420
  1842203
370
     5
100
AcDbVertex
100
AcDb2dVertex
 10
507.2776071119376
 20
60.43180699029789
 30
0.0
  0
VERTEX
  5
1CB
330
1BF
100
AcDbEntity
  8
Cut
 62
   179
420
  1842203
370
     5
100
AcDbVertex
100
AcDb2dVertex
 10
505.1853518631453
 20
58.29773403053419
 30
0.0
  0
VERTEX
  5
1CC
330
1BF
100
AcDbEntity
  8
Cut
 62
   179
420
  1842203
370
     5
100
AcDbVertex
100
AcDb2dVertex
 10
506.6908406199281
 20
53.02564052404712
 30
0.0
  0
VERTEX
  5
1CD
330
1BF
100
AcDbEntity
  8
Cut
 62
   179
420
  1842203
370
     5
100
AcDbVertex
100
AcDb2dVertex
 10
509.6998662198346
 20
52.2647425747628
 30
0.0
  0
VERTEX
  5
1CE
330
1BF
100
AcDbEntity
  8
Cut
 62
   179
420
  1842203
370
     5
100
AcDbVertex
100
AcDb2dVertex
 10
512.1505420986381
 20
54.76886286912207
 30
0.0
  0
VERTEX
  5
1CF
330
1BF
100
AcDbEntity
  8
Cut
 62
   179
420
  1842203
370
     5
100
AcDbVertex
100
AcDb2dVertex
 10
514.0053748443115
 20
52.99183201520798
 30
0.0
  0
VERTEX
  5
1D0
330
1BF
100
AcDbEntity
  8
Cut
 62
   179
420
  1842203
370
     5
100
AcDbVertex
100
AcDb2dVertex
 10
512.5717629871747
 20
51.53852553639346
 30
0.0
  0
VERTEX
  5
1D1
330
1BF
100
AcDbEntity
  8
Cut
 62
   179
420
  1842203
370
     5
100
AcDbVertex
100
AcDb2dVertex
 10
514.3952147512555
 20
51.07743234595115
 30
0.0
  0
VERTEX
  5
1D2
330
1BF
100
AcDbEntity
  8
Cut
 62
   179
420
  1842203
370
     5
100
AcDbVertex
100
AcDb2dVertex
 10
519.3168859356172
 20
56.15291366801365
 30
0.0
  0
VERTEX
  5
1D3
330
1BF
100
AcDbEntity
  8
Cut
 62
   179
420
  1842203
370
     5
100
AcDbVertex
100
AcDb2dVertex
 10
521.1661137905085
 20
54.35373146177164
 30
0.0
  0
VERTEX
  5
1D4
330
1BF
100
AcDbEntity
  8
Cut
 62
   179
420
  1842203
370
     5
100
AcDbVertex
100
AcDb2dVertex
 10
517.2671115185948
 20
50.35121530758212
 30
0.0
  0
VERTEX
  5
1D5
330
1BF
100
AcDbEntity
  8
Cut
 62
   179
420
  1842203
370
     5
100
AcDbVertex
100
AcDb2dVertex
 10
522.2815422112574
 20
49.08321159179803
 30
0.0
  0
VERTEX
  5
1D6
330
1BF
100
AcDbEntity
  8
Cut
 62
   179
420
  1842203
370
     5
100
AcDbVertex
100
AcDb2dVertex
 10
521.6543222943637
 20
46.60280655175544
 30
0.0
  0
VERTEX
  5
1D7
330
1BF
100
AcDbEntity
  8
Cut
 62
   179
420
  1842203
370
     5
100
AcDbVertex
100
AcDb2dVertex
 10
516.5715942756381
 20
47.88807659944228
 30
0.0
  0
VERTEX
  5
1D8
330
1BF
100
AcDbEntity
  8
Cut
 62
   179
420
  1842203
370
     5
100
AcDbVertex
100
AcDb2dVertex
 10
517.9009534955429
 20
43.15124648006059
 30
0.0
  0
VERTEX
  5
1D9
330
1BF
100
AcDbEntity
  8
Cut
 62
   179
420
  1842203
370
     5
100
AcDbVertex
100
AcDb2dVertex
 10
565.0674244589387
 20
71.97310616578665
 30
0.0
  0
VERTEX
  5
1DA
330
1BF
100
AcDbEntity
  8
Cut
 62
   179
420
  1842203
370
     5
100
AcDbVertex
100
AcDb2dVertex
 10
509.7199197935498
 20
71.99320704617935
 30
0.0
  0
VERTEX
  5
1DB
330
1BF
100
AcDbEntity
  8
Cut
 62
   179
420
  1842203
370
     5
100
AcDbVertex
100
AcDb2dVertex
 10
510.8990087928253
 20
67.84662949599257
 30
0.0
  0
SEQEND
  5
1DC
330
1BF
100
AcDbEntity
  8
Cut
 62
   179
420
  1842203
370
     5
  0
POLYLINE
  5
1DD
330
179
100
AcDbEntity
  8
Cut
 62
   179
420
  1842203
370
     5
100
AcDb2dPolyline
 66
     1
 10
0.0
 20
0.0
 30
0.0
  0
VERTEX
  5
1DE
330
1DD
100
AcDbEntity
  8
Cut
 62
   179
420
  1842203
370
     5
100
AcDbVertex
100
AcDb2dVertex
 10
498.7394795846889
 20
31.44229447065997
 30
0.0
  0
VERTEX
  5
1DF
330
1DD
100
AcDbEntity
  8
Cut
 62
   179
420
  1842203
370
     5
100
AcDbVertex
100
AcDb2dVertex
 10
496.9675610346951
 20
33.18328649076594
 30
0.0
  0
VERTEX
  5
1E0
330
1DD
100
AcDbEntity
  8
Cut
 62
   179
420
  1842203
370
     5
100
AcDbVertex
100
AcDb2dVertex
 10
501.9807443588504
 20
38.33216120574767
 30
0.0
  0
VERTEX
  5
1E1
330
1DD
100
AcDbEntity
  8
Cut
 62
   179
420
  1842203
370
     5
100
AcDbVertex
100
AcDb2dVertex
 10
501.4822382080472
 20
40.10512557669849
 30
0.0
  0
VERTEX
  5
1E2
330
1DD
100
AcDbEntity
  8
Cut
 62
   179
420
  1842203
370
     5
100
AcDbVertex
100
AcDb2dVertex
 10
500.1789300791584
 20
38.7877785919789
 30
0.0
  0
VERTEX
  5
1E3
330
1DD
100
AcDbEntity
  8
Cut
 62
   179
420
  1842203
370
     5
100
AcDbVertex
100
AcDb2dVertex
 10
498.3532580407358
 20
40.58152703442441
 30
0.0
  0
VERTEX
  5
1E4
330
1DD
100
AcDbEntity
  8
Cut
 62
   179
420
  1842203
370
     5
100
AcDbVertex
100
AcDb2dVertex
 10
500.6732481175594
 20
42.94812779085322
 30
0.0
  0
VERTEX
  5
1E5
330
1DD
100
AcDbEntity
  8
Cut
 62
   179
420
  1842203
370
     5
100
AcDbVertex
100
AcDb2dVertex
 10
499.8486922238021
 20
45.82091808745016
 30
0.0
  0
VERTEX
  5
1E6
330
1DD
100
AcDbEntity
  8
Cut
 62
   179
420
  1842203
370
     5
100
AcDbVertex
100
AcDb2dVertex
 10
494.5139248808227
 20
47.16991913409834
 30
0.0
  0
VERTEX
  5
1E7
330
1DD
100
AcDbEntity
  8
Cut
 62
   179
420
  1842203
370
     5
100
AcDbVertex
100
AcDb2dVertex
 10
492.3535116075983
 20
44.95596736666894
 30
0.0
  0
VERTEX
  5
1E8
330
1DD
100
AcDbEntity
  8
Cut
 62
   179
420
  1842203
370
     5
100
AcDbVertex
100
AcDb2dVertex
 10
493.3208777244074
 20
41.58753323646051
 30
0.0
  0
VERTEX
  5
1E9
330
1DD
100
AcDbEntity
  8
Cut
 62
   179
420
  1842203
370
     5
100
AcDbVertex
100
AcDb2dVertex
 10
490.8620109066406
 20
40.87722834175775
 30
0.0
  0
VERTEX
  5
1EA
330
1DD
100
AcDbEntity
  8
Cut
 62
   179
420
  1842203
370
     5
100
AcDbVertex
100
AcDb2dVertex
 10
490.313395462728
 20
42.83178213314522
 30
0.0
  0
VERTEX
  5
1EB
330
1DD
100
AcDbEntity
  8
Cut
 62
   179
420
  1842203
370
     5
100
AcDbVertex
100
AcDb2dVertex
 10
489.004517017033
 20
41.49221392549318
 30
0.0
  0
VERTEX
  5
1EC
330
1DD
100
AcDbEntity
  8
Cut
 62
   179
420
  1842203
370
     5
100
AcDbVertex
100
AcDb2dVertex
 10
490.9278683164687
 20
34.7105371605278
 30
0.0
  0
VERTEX
  5
1ED
330
1DD
100
AcDbEntity
  8
Cut
 62
   179
420
  1842203
370
     5
100
AcDbVertex
100
AcDb2dVertex
 10
488.4674629193393
 20
34.00055570597586
 30
0.0
  0
VERTEX
  5
1EE
330
1DD
100
AcDbEntity
  8
Cut
 62
   179
420
  1842203
370
     5
100
AcDbVertex
100
AcDb2dVertex
 10
486.9414870155783
 20
39.37487670522614
 30
0.0
  0
VERTEX
  5
1EF
330
1DD
100
AcDbEntity
  8
Cut
 62
   179
420
  1842203
370
     5
100
AcDbVertex
100
AcDb2dVertex
 10
483.3458959933311
 20
35.69088119598905
 30
0.0
  0
VERTEX
  5
1F0
330
1DD
100
AcDbEntity
  8
Cut
 62
   179
420
  1842203
370
     5
100
AcDbVertex
100
AcDb2dVertex
 10
486.6230111467838
 20
24.038316523656
 30
0.0
  0
VERTEX
  5
1F1
330
1DD
100
AcDbEntity
  8
Cut
 62
   179
420
  1842203
370
     5
100
AcDbVertex
100
AcDb2dVertex
 10
498.7394795846889
 20
31.44229447065997
 30
0.0
  0
SEQEND
  5
1F2
330
1DD
100
AcDbEntity
  8
Cut
 62
   179
420
  1842203
370
     5
  0
POLYLINE
  5
1F3
330
179
100
AcDbEntity
  8
Cut
 62
   179
420
  1842203
370
     5
100
AcDb2dPolyline
 66
     1
 10
0.0
 20
0.0
 30
0.0
  0
VERTEX
  5
1F4
330
1F3
100
AcDbEntity
  8
Cut
 62
   179
420
  1842203
370
     5
100
AcDbVertex
100
AcDb2dVertex
 10
498.9997697429662
 20
31.60133947642051
 30
0.0
  0
VERTEX
  5
1F5
330
1F3
100
AcDbEntity
  8
Cut
 62
   179
420
  1842203
370
     5
100
AcDbVertex
100
AcDb2dVertex
 10
503.1720199736108
 20
34.15086552373889
 30
0.0
  0
VERTEX
  5
1F6
330
1F3
100
AcDbEntity
  8
Cut
 62
   179
420
  1842203
370
     5
100
AcDbVertex
100
AcDb2dVertex
 10
502.7892054399385
 20
35.48817447799461
 30
0.0
  0
VERTEX
  5
1F7
330
1F3
100
AcDbEntity
  8
Cut
 62
   179
420
  1842203
370
     5
100
AcDbVertex
100
AcDb2dVertex
 10
498.9997697429662
 20
31.60133947642051
 30
0.0
  0
SEQEND
  5
1F8
330
1F3
100
AcDbEntity
  8
Cut
 62
   179
420
  1842203
370
     5
  0
POLYLINE
  5
1F9
330
179
100
AcDbEntity
  8
Cut
 62
   179
420
  1842203
370
     5
100
AcDb2dPolyline
 66
     1
 10
0.0
 20
0.0
 30
0.0
  0
VERTEX
  5
1FA
330
1F9
100
AcDbEntity
  8
Cut
 62
   179
420
  1842203
370
     5
100
AcDbVertex
100
AcDb2dVertex
 10
481.2902768099847
 20
59.32690502867057
 30
0.0
  0
VERTEX
  5
1FB
330
1F9
100
AcDbEntity
  8
Cut
 62
   179
420
  1842203
370
     5
100
AcDbVertex
100
AcDb2dVertex
 10
479.7246757879748
 20
64.83301302441784
 30
0.0
  0
VERTEX
  5
1FC
330
1F9
100
AcDbEntity
  8
Cut
 62
   179
420
  1842203
370
     5
100
AcDbVertex
100
AcDb2dVertex
 10
482.1834215872147
 20
65.54284611722107
 30
0.0
  0
VERTEX
  5
1FD
330
1F9
100
AcDbEntity
  8
Cut
 62
   179
420
  1842203
370
     5
100
AcDbVertex
100
AcDb2dVertex
 10
484.1621689673191
 20
58.60068669380447
 30
0.0
  0
VERTEX
  5
1FE
330
1F9
100
AcDbEntity
  8
Cut
 62
   179
420
  1842203
370
     5
100
AcDbVertex
100
AcDb2dVertex
 10
485.9405478730897
 20
58.15099460979035
 30
0.0
  0
VERTEX
  5
1FF
330
1F9
100
AcDbEntity
  8
Cut
 62
   179
420
  1842203
370
     5
100
AcDbVertex
100
AcDb2dVertex
 10
485.4435774195953
 20
59.92357503452835
 30
0.0
  0
VERTEX
  5
200
330
1F9
100
AcDbEntity
  8
Cut
 62
   179
420
  1842203
370
     5
100
AcDbVertex
100
AcDb2dVertex
 10
487.9024615254177
 20
60.63392458826357
 30
0.0
  0
VERTEX
  5
201
330
1F9
100
AcDbEntity
  8
Cut
 62
   179
420
  1842203
370
     5
100
AcDbVertex
100
AcDb2dVertex
 10
488.8124446404297
 20
57.42477757142133
 30
0.0
  0
VERTEX
  5
202
330
1F9
100
AcDbEntity
  8
Cut
 62
   179
420
  1842203
370
     5
100
AcDbVertex
100
AcDb2dVertex
 10
491.752906112043
 20
56.68121020933331
 30
0.0
  0
VERTEX
  5
203
330
1F9
100
AcDbEntity
  8
Cut
 62
   179
420
  1842203
370
     5
100
AcDbVertex
100
AcDb2dVertex
 10
495.5548040314283
 20
60.58822498081009
 30
0.0
  0
VERTEX
  5
204
330
1F9
100
AcDbEntity
  8
Cut
 62
   179
420
  1842203
370
     5
100
AcDbVertex
100
AcDb2dVertex
 10
494.6943533571679
 20
63.61372998752124
 30
0.0
  0
VERTEX
  5
205
330
1F9
100
AcDbEntity
  8
Cut
 62
   179
420
  1842203
370
     5
100
AcDbVertex
100
AcDb2dVertex
 10
491.2982156481737
 20
64.47250376386415
 30
0.0
  0
VERTEX
  5
206
330
1F9
100
AcDbEntity
  8
Cut
 62
   179
420
  1842203
370
     5
100
AcDbVertex
100
AcDb2dVertex
 10
491.9255686856678
 20
66.95344370486306
 30
0.0
  0
VERTEX
  5
207
330
1F9
100
AcDbEntity
  8
Cut
 62
   179
420
  1842203
370
     5
100
AcDbVertex
100
AcDb2dVertex
 10
493.8858917000952
 20
66.45773645179636
 30
0.0
  0
VERTEX
  5
208
330
1F9
100
AcDbEntity
  8
Cut
 62
   179
420
  1842203
370
     5
100
AcDbVertex
100
AcDb2dVertex
 10
493.3711501239653
 20
68.25890768807503
 30
0.0
  0
VERTEX
  5
209
330
1F9
100
AcDbEntity
  8
Cut
 62
   179
420
  1842203
370
     5
100
AcDbVertex
100
AcDb2dVertex
 10
486.5103664737434
 20
69.99378164940681
 30
0.0
  0
VERTEX
  5
20A
330
1F9
100
AcDbEntity
  8
Cut
 62
   179
420
  1842203
370
     5
100
AcDbVertex
100
AcDb2dVertex
 10
487.0180401637848
 20
72.0014656536062
 30
0.0
  0
VERTEX
  5
20B
330
1F9
100
AcDbEntity
  8
Cut
 62
   179
420
  1842203
370
     5
100
AcDbVertex
100
AcDb2dVertex
 10
473.1326542397849
 20
72.0064985834185
 30
0.0
  0
VERTEX
  5
20C
330
1F9
100
AcDbEntity
  8
Cut
 62
   179
420
  1842203
370
     5
100
AcDbVertex
100
AcDb2dVertex
 10
476.3470655898608
 20
60.57689224177241
 30
0.0
  0
VERTEX
  5
20D
330
1F9
100
AcDbEntity
  8
Cut
 62
   179
420
  1842203
370
     5
100
AcDbVertex
100
AcDb2dVertex
 10
481.2902768099847
 20
59.32690502867057
 30
0.0
  0
SEQEND
  5
20E
330
1F9
100
AcDbEntity
  8
Cut
 62
   179
420
  1842203
370
     5
  0
POLYLINE
  5
20F
330
179
100
AcDbEntity
  8
Cut
 62
   179
420
  1842203
370
     5
100
AcDb2dPolyline
 66
     1
 10
0.0
 20
0.0
 30
0.0
  0
VERTEX
  5
210
330
20F
100
AcDbEntity
  8
Cut
 62
   179
420
  1842203
370
     5
100
AcDbVertex
100
AcDb2dVertex
 10
485.1546745637345
 20
41.23125016934994
 30
0.0
  0
VERTEX
  5
211
330
20F
100
AcDbEntity
  8
Cut
 62
   179
420
  1842203
370
     5
100
AcDbVertex
100
AcDb2dVertex
 10
481.5299749704456
 20
42.14782157439357
 30
0.0
  0
VERTEX
  5
212
330
20F
100
AcDbEntity
  8
Cut
 62
   179
420
  1842203
370
     5
100
AcDbVertex
100
AcDb2dVertex
 10
482.5424617004827
 20
38.54768348061994
 30
0.0
  0
VERTEX
  5
213
330
20F
100
AcDbEntity
  8
Cut
 62
   179
420
  1842203
370
     5
100
AcDbVertex
100
AcDb2dVertex
 10
485.1546745637345
 20
41.23125016934994
 30
0.0
  0
SEQEND
  5
214
330
20F
100
AcDbEntity
  8
Cut
 62
   179
420
  1842203
370
     5
  0
ENDBLK
  5
17C
330
179
100
AcDbEntity
  8
0
100
AcDbBlockEnd
  0
BLOCK
  5
230
330
22E
100
AcDbEntity
  8
0
100
AcDbBlockBegin
  2
block 5
 70
     0
 10
0.0
 20
0.0
 30
0.0
  3
block 5
  1

  0
POLYLINE
  5
232
330
22E
100
AcDbEntity
  8
Cut
 62
   179
420
  1842203
370
     5
100
AcDb2dPolyline
 66
     1
 10
0.0
 20
0.0
 30
0.0
  0
VERTEX
  5
233
330
232
100
AcDbEntity
  8
Cut
 62
   179
420
  1842203
370
     5
100
AcDbVertex
100
AcDb2dVertex
 10
683.5216106018784
 20
32.50772176592053
 30
0.0
  0
VERTEX
  5
234
330
232
100
AcDbEntity
  8
Cut
 62
   179
420
  1842203
370
     5
100
AcDbVertex
100
AcDb2dVertex
 10
683.1106454902301
 20
30.73378424705813
 30
0.0
  0
VERTEX
  5
235
330
232
100
AcDbEntity
  8
Cut
 62
   179
420
  1842203
370
     5
100
AcDbVertex
100
AcDb2dVertex
 10
684.8855951518942
 20
31.2839257445033
 30
0.0
  0
VERTEX
  5
236
330
232
100
AcDbEntity
  8
Cut
 62
   179
420
  1842203
370
     5
100
AcDbVertex
100
AcDb2dVertex
 10
685.6502732610522
 20
28.81679799044268
 30
0.0
  0
VERTEX
  5
237
330
232
100
AcDbEntity
  8
Cut
 62
   179
420
  1842203
370
     5
100
AcDbVertex
100
AcDb2dVertex
 10
682.4604342634502
 20
27.82812430206618
 30
0.0
  0
VERTEX
  5
238
330
232
100
AcDbEntity
  8
Cut
 62
   179
420
  1842203
370
     5
100
AcDbVertex
100
AcDb2dVertex
 10
681.7955430473821
 20
24.89446711456251
 30
0.0
  0
VERTEX
  5
239
330
232
100
AcDbEntity
  8
Cut
 62
   179
420
  1842203
370
     5
100
AcDbVertex
100
AcDb2dVertex
 10
685.7967908383829
 20
21.19445396739075
 30
0.0
  0
VERTEX
  5
23A
330
232
100
AcDbEntity
  8
Cut
 62
   179
420
  1842203
370
     5
100
AcDbVertex
100
AcDb2dVertex
 10
688.7842758314472
 20
22.12041274356306
 30
0.0
  0
VERTEX
  5
23B
330
232
100
AcDbEntity
  8
Cut
 62
   179
420
  1842203
370
     5
100
AcDbVertex
100
AcDb2dVertex
 10
689.5723699362152
 20
25.53473329387561
 30
0.0
  0
VERTEX
  5
23C
330
232
100
AcDbEntity
  8
Cut
 62
   179
420
  1842203
370
     5
100
AcDbVertex
100
AcDb2dVertex
 10
692.0582701695029
 20
24.97820440530375
 30
0.0
  0
VERTEX
  5
23D
330
232
100
AcDbEntity
  8
Cut
 62
   179
420
  1842203
370
     5
100
AcDbVertex
100
AcDb2dVertex
 10
691.6137727593913
 20
22.99739892817971
 30
0.0
  0
VERTEX
  5
23E
330
232
100
AcDbEntity
  8
Cut
 62
   179
420
  1842203
370
     5
100
AcDbVertex
100
AcDb2dVertex
 10
693.3871715743835
 20
23.54705268906284
 30
0.0
  0
VERTEX
  5
23F
330
232
100
AcDbEntity
  8
Cut
 62
   179
420
  1842203
370
     5
100
AcDbVertex
100
AcDb2dVertex
 10
694.8422749571093
 20
29.91104852221455
 30
0.0
  0
VERTEX
  5
240
330
232
100
AcDbEntity
  8
Cut
 62
   179
420
  1842203
370
     5
100
AcDbVertex
100
AcDb2dVertex
 10
689.9128358488877
 20
34.48866475518365
 30
0.0
  0
VERTEX
  5
241
330
232
100
AcDbEntity
  8
Cut
 62
   179
420
  1842203
370
     5
100
AcDbVertex
100
AcDb2dVertex
 10
683.5216106018784
 20
32.50772176592053
 30
0.0
  0
SEQEND
  5
242
330
232
100
AcDbEntity
  8
Cut
 62
   179
420
  1842203
370
     5
  0
POLYLINE
  5
243
330
22E
100
AcDbEntity
  8
Cut
 62
   179
420
  1842203
370
     5
100
AcDb2dPolyline
 66
     1
 10
0.0
 20
0.0
 30
0.0
  0
VERTEX
  5
244
330
243
100
AcDbEntity
  8
Cut
 62
   179
420
  1842203
370
     5
100
AcDbVertex
100
AcDb2dVertex
 10
671.0995102075894
 20
16.51608743977145
 30
0.0
  0
VERTEX
  5
245
330
243
100
AcDbEntity
  8
Cut
 62
   179
420
  1842203
370
     5
100
AcDbVertex
100
AcDb2dVertex
 10
672.3157698896334
 20
21.8833516313227
 30
0.0
  0
VERTEX
  5
246
330
243
100
AcDbEntity
  8
Cut
 62
   179
420
  1842203
370
     5
100
AcDbVertex
100
AcDb2dVertex
 10
670.0645132618079
 20
23.98605492674864
 30
0.0
  0
VERTEX
  5
247
330
243
100
AcDbEntity
  8
Cut
 62
   179
420
  1842203
370
     5
100
AcDbVertex
100
AcDb2dVertex
 10
666.6954265429498
 20
22.9418139360284
 30
0.0
  0
VERTEX
  5
248
330
243
100
AcDbEntity
  8
Cut
 62
   179
420
  1842203
370
     5
100
AcDbVertex
100
AcDb2dVertex
 10
665.9376717260853
 20
25.38658613956159
 30
0.0
  0
VERTEX
  5
249
330
243
100
AcDbEntity
  8
Cut
 62
   179
420
  1842203
370
     5
100
AcDbVertex
100
AcDb2dVertex
 10
667.892147594247
 20
25.9923696274589
 30
0.0
  0
VERTEX
  5
24A
330
243
100
AcDbEntity
  8
Cut
 62
   179
420
  1842203
370
     5
100
AcDbVertex
100
AcDb2dVertex
 10
666.5144535552943
 20
27.26037693023121
 30
0.0
  0
VERTEX
  5
24B
330
243
100
AcDbEntity
  8
Cut
 62
   179
420
  1842203
370
     5
100
AcDbVertex
100
AcDb2dVertex
 10
661.9294079617451
 20
25.83924995205043
 30
0.0
  0
VERTEX
  5
24C
330
243
100
AcDbEntity
  8
Cut
 62
   179
420
  1842203
370
     5
100
AcDbVertex
100
AcDb2dVertex
 10
658.4461006495145
 20
19.05004213877026
 30
0.0
  0
VERTEX
  5
24D
330
243
100
AcDbEntity
  8
Cut
 62
   179
420
  1842203
370
     5
100
AcDbVertex
100
AcDb2dVertex
 10
663.6655634313514
 20
14.2119700639544
 30
0.0
  0
VERTEX
  5
24E
330
243
100
AcDbEntity
  8
Cut
 62
   179
420
  1842203
370
     5
100
AcDbVertex
100
AcDb2dVertex
 10
665.4405271295647
 20
14.76209852666548
 30
0.0
  0
VERTEX
  5
24F
330
243
100
AcDbEntity
  8
Cut
 62
   179
420
  1842203
370
     5
100
AcDbVertex
100
AcDb2dVertex
 10
664.0694980008736
 20
16.00932994446062
 30
0.0
  0
VERTEX
  5
250
330
243
100
AcDbEntity
  8
Cut
 62
   179
420
  1842203
370
     5
100
AcDbVertex
100
AcDb2dVertex
 10
665.8192920671938
 20
17.90317935633773
 30
0.0
  0
VERTEX
  5
251
330
243
100
AcDbEntity
  8
Cut
 62
   179
420
  1842203
370
     5
100
AcDbVertex
100
AcDb2dVertex
 10
668.2700273161919
 20
15.63908822041975
 30
0.0
  0
VERTEX
  5
252
330
243
100
AcDbEntity
  8
Cut
 62
   179
420
  1842203
370
     5
100
AcDbVertex
100
AcDb2dVertex
 10
671.0995102075894
 20
16.51608743977145
 30
0.0
  0
SEQEND
  5
253
330
243
100
AcDbEntity
  8
Cut
 62
   179
420
  1842203
370
     5
  0
POLYLINE
  5
254
330
22E
100
AcDbEntity
  8
Cut
 62
   179
420
  1842203
370
     5
100
AcDb2dPolyline
 66
     1
 10
0.0
 20
0.0
 30
0.0
  0
VERTEX
  5
255
330
254
100
AcDbEntity
  8
Cut
 62
   179
420
  1842203
370
     5
100
AcDbVertex
100
AcDb2dVertex
 10
699.6163154436142
 20
25.47773983372443
 30
0.0
  0
VERTEX
  5
256
330
254
100
AcDbEntity
  8
Cut
 62
   179
420
  1842203
370
     5
100
AcDbVertex
100
AcDb2dVertex
 10
697.0202839839679
 20
27.88848789046635
 30
0.0
  0
VERTEX
  5
257
330
254
100
AcDbEntity
  8
Cut
 62
   179
420
  1842203
370
     5
100
AcDbVertex
100
AcDb2dVertex
 10
696.2184837977002
 20
24.42461433308756
 30
0.0
  0
VERTEX
  5
258
330
254
100
AcDbEntity
  8
Cut
 62
   179
420
  1842203
370
     5
100
AcDbVertex
100
AcDb2dVertex
 10
699.6163154436142
 20
25.47773983372443
 30
0.0
  0
SEQEND
  5
259
330
254
100
AcDbEntity
  8
Cut
 62
   179
420
  1842203
370
     5
  0
POLYLINE
  5
25A
330
22E
100
AcDbEntity
  8
Cut
 62
   179
420
  1842203
370
     5
100
AcDb2dPolyline
 66
     1
 10
0.0
 20
0.0
 30
0.0
  0
VERTEX
  5
25B
330
25A
100
AcDbEntity
  8
Cut
 62
   179
420
  1842203
370
     5
100
AcDbVertex
100
AcDb2dVertex
 10
685.9304396058658
 20
9.488508766464626
 30
0.0
  0
VERTEX
  5
25C
330
25A
100
AcDbEntity
  8
Cut
 62
   179
420
  1842203
370
     5
100
AcDbVertex
100
AcDb2dVertex
 10
683.6982857197571
 20
11.52423619996974
 30
0.0
  0
VERTEX
  5
25D
330
25A
100
AcDbEntity
  8
Cut
 62
   179
420
  1842203
370
     5
100
AcDbVertex
100
AcDb2dVertex
 10
678.4881913517426
 20
9.90938885708454
 30
0.0
  0
VERTEX
  5
25E
330
25A
100
AcDbEntity
  8
Cut
 62
   179
420
  1842203
370
     5
100
AcDbVertex
100
AcDb2dVertex
 10
677.7906266074596
 20
6.843175775117797
 30
0.0
  0
VERTEX
  5
25F
330
25A
100
AcDbEntity
  8
Cut
 62
   179
420
  1842203
370
     5
100
AcDbVertex
100
AcDb2dVertex
 10
680.3704420770385
 20
4.471575248125253
 30
0.0
  0
VERTEX
  5
260
330
25A
100
AcDbEntity
  8
Cut
 62
   179
420
  1842203
370
     5
100
AcDbVertex
100
AcDb2dVertex
 10
678.6188500105761
 20
2.577140851242326
 30
0.0
  0
VERTEX
  5
261
330
25A
100
AcDbEntity
  8
Cut
 62
   179
420
  1842203
370
     5
100
AcDbVertex
100
AcDb2dVertex
 10
677.1320071639595
 20
3.959342032563546
 30
0.0
  0
VERTEX
  5
262
330
25A
100
AcDbEntity
  8
Cut
 62
   179
420
  1842203
370
     5
100
AcDbVertex
100
AcDb2dVertex
 10
676.729414907675
 20
2.16297723028929
 30
0.0
  0
VERTEX
  5
263
330
25A
100
AcDbEntity
  8
Cut
 62
   179
420
  1842203
370
     5
100
AcDbVertex
100
AcDb2dVertex
 10
681.5187761724486
 20
-2.280069053556102
 30
0.0
  0
VERTEX
  5
264
330
25A
100
AcDbEntity
  8
Cut
 62
   179
420
  1842203
370
     5
100
AcDbVertex
100
AcDb2dVertex
 10
688.475315676481
 20
1.96466505895479
 30
0.0
  0
VERTEX
  5
265
330
25A
100
AcDbEntity
  8
Cut
 62
   179
420
  1842203
370
     5
100
AcDbVertex
100
AcDb2dVertex
 10
689.4504729954932
 20
6.229398212782143
 30
0.0
  0
VERTEX
  5
266
330
25A
100
AcDbEntity
  8
Cut
 62
   179
420
  1842203
370
     5
100
AcDbVertex
100
AcDb2dVertex
 10
688.086531326012
 20
7.453775262165176
 30
0.0
  0
VERTEX
  5
267
330
25A
100
AcDbEntity
  8
Cut
 62
   179
420
  1842203
370
     5
100
AcDbVertex
100
AcDb2dVertex
 10
687.6839508494078
 20
5.657366844738204
 30
0.0
  0
VERTEX
  5
268
330
25A
100
AcDbEntity
  8
Cut
 62
   179
420
  1842203
370
     5
100
AcDbVertex
100
AcDb2dVertex
 10
685.1896198418576
 20
6.235782094773477
 30
0.0
  0
VERTEX
  5
269
330
25A
100
AcDbEntity
  8
Cut
 62
   179
420
  1842203
370
     5
100
AcDbVertex
100
AcDb2dVertex
 10
685.9304396058658
 20
9.488508766464626
 30
0.0
  0
SEQEND
  5
26A
330
25A
100
AcDbEntity
  8
Cut
 62
   179
420
  1842203
370
     5
  0
POLYLINE
  5
26B
330
22E
100
AcDbEntity
  8
Cut
 62
   179
420
  1842203
370
     5
100
AcDb2dPolyline
 66
     1
 10
0.0
 20
0.0
 30
0.0
  0
VERTEX
  5
26C
330
26B
100
AcDbEntity
  8
Cut
 62
   179
420
  1842203
370
     5
100
AcDbVertex
100
AcDb2dVertex
 10
679.976012308229
 20
22.58546814671452
 30
0.0
  0
VERTEX
  5
26D
330
26B
100
AcDbEntity
  8
Cut
 62
   179
420
  1842203
370
     5
100
AcDbVertex
100
AcDb2dVertex
 10
675.1460728439638
 20
21.08844285121414
 30
0.0
  0
VERTEX
  5
26E
330
26B
100
AcDbEntity
  8
Cut
 62
   179
420
  1842203
370
     5
100
AcDbVertex
100
AcDb2dVertex
 10
674.0136804396765
 20
16.16635180822141
 30
0.0
  0
VERTEX
  5
26F
330
26B
100
AcDbEntity
  8
Cut
 62
   179
420
  1842203
370
     5
100
AcDbVertex
100
AcDb2dVertex
 10
677.7384040213346
 20
12.7246103436317
 30
0.0
  0
VERTEX
  5
270
330
26B
100
AcDbEntity
  8
Cut
 62
   179
420
  1842203
370
     5
100
AcDbVertex
100
AcDb2dVertex
 10
682.5683575221457
 20
14.22162260439863
 30
0.0
  0
VERTEX
  5
271
330
26B
100
AcDbEntity
  8
Cut
 62
   179
420
  1842203
370
     5
100
AcDbVertex
100
AcDb2dVertex
 10
683.6933862388474
 20
19.16652390811209
 30
0.0
  0
VERTEX
  5
272
330
26B
100
AcDbEntity
  8
Cut
 62
   179
420
  1842203
370
     5
100
AcDbVertex
100
AcDb2dVertex
 10
679.976012308229
 20
22.58546814671452
 30
0.0
  0
SEQEND
  5
273
330
26B
100
AcDbEntity
  8
Cut
 62
   179
420
  1842203
370
     5
  0
POLYLINE
  5
274
330
22E
100
AcDbEntity
  8
Cut
 62
   179
420
  1842203
370
     5
100
AcDb2dPolyline
 66
     1
 10
0.0
 20
0.0
 30
0.0
  0
VERTEX
  5
275
330
274
100
AcDbEntity
  8
Cut
 62
   179
420
  1842203
370
     5
100
AcDbVertex
100
AcDb2dVertex
 10
676.079064328387
 20
-0.7422134754231302
 30
0.0
  0
VERTEX
  5
276
330
274
100
AcDbEntity
  8
Cut
 62
   179
420
  1842203
370
     5
100
AcDbVertex
100
AcDb2dVertex
 10
674.9285074811179
 20
-5.767358204087737
 30
0.0
  0
VERTEX
  5
277
330
274
100
AcDbEntity
  8
Cut
 62
   179
420
  1842203
370
     5
100
AcDbVertex
100
AcDb2dVertex
 10
672.4195322963282
 20
-5.217999485709456
 30
0.0
  0
VERTEX
  5
278
330
274
100
AcDbEntity
  8
Cut
 62
   179
420
  1842203
370
     5
100
AcDbVertex
100
AcDb2dVertex
 10
673.5865621881416
 20
-0.0880474042714776
 30
0.0
  0
VERTEX
  5
279
330
274
100
AcDbEntity
  8
Cut
 62
   179
420
  1842203
370
     5
100
AcDbVertex
100
AcDb2dVertex
 10
668.1065548634892
 20
-1.786536684872348
 30
0.0
  0
VERTEX
  5
27A
330
274
100
AcDbEntity
  8
Cut
 62
   179
420
  1842203
370
     5
100
AcDbVertex
100
AcDb2dVertex
 10
667.3492902905087
 20
0.6567084845865635
 30
0.0
  0
VERTEX
  5
27B
330
274
100
AcDbEntity
  8
Cut
 62
   179
420
  1842203
370
     5
100
AcDbVertex
100
AcDb2dVertex
 10
674.2438944293012
 20
2.793668302743493
 30
0.0
  0
VERTEX
  5
27C
330
274
100
AcDbEntity
  8
Cut
 62
   179
420
  1842203
370
     5
100
AcDbVertex
100
AcDb2dVertex
 10
674.6479941675584
 20
4.590502294081769
 30
0.0
  0
VERTEX
  5
27D
330
274
100
AcDbEntity
  8
Cut
 62
   179
420
  1842203
370
     5
100
AcDbVertex
100
AcDb2dVertex
 10
672.8731019071382
 20
4.040366309400862
 30
0.0
  0
VERTEX
  5
27E
330
274
100
AcDbEntity
  8
Cut
 62
   179
420
  1842203
370
     5
100
AcDbVertex
100
AcDb2dVertex
 10
672.11549621883
 20
6.484679801065115
 30
0.0
  0
VERTEX
  5
27F
330
274
100
AcDbEntity
  8
Cut
 62
   179
420
  1842203
370
     5
100
AcDbVertex
100
AcDb2dVertex
 10
675.3052745564999
 20
7.473344467541992
 30
0.0
  0
VERTEX
  5
280
330
274
100
AcDbEntity
  8
Cut
 62
   179
420
  1842203
370
     5
100
AcDbVertex
100
AcDb2dVertex
 10
675.9786647259402
 20
10.38510426247512
 30
0.0
  0
VERTEX
  5
281
330
274
100
AcDbEntity
  8
Cut
 62
   179
420
  1842203
370
     5
100
AcDbVertex
100
AcDb2dVertex
 10
671.9460977027107
 20
14.09992182745572
 30
0.0
  0
VERTEX
  5
282
330
274
100
AcDbEntity
  8
Cut
 62
   179
420
  1842203
370
     5
100
AcDbVertex
100
AcDb2dVertex
 10
668.9814903897513
 20
13.18106153880808
 30
0.0
  0
VERTEX
  5
283
330
274
100
AcDbEntity
  8
Cut
 62
   179
420
  1842203
370
     5
100
AcDbVertex
100
AcDb2dVertex
 10
668.195068935687
 20
9.766684288392568
 30
0.0
  0
VERTEX
  5
284
330
274
100
AcDbEntity
  8
Cut
 62
   179
420
  1842203
370
     5
100
AcDbVertex
100
AcDb2dVertex
 10
665.6859145456169
 20
10.3165819306716
 30
0.0
  0
VERTEX
  5
285
330
274
100
AcDbEntity
  8
Cut
 62
   179
420
  1842203
370
     5
100
AcDbVertex
100
AcDb2dVertex
 10
666.151990203124
 20
12.30407184505381
 30
0.0
  0
VERTEX
  5
286
330
274
100
AcDbEntity
  8
Cut
 62
   179
420
  1842203
370
     5
100
AcDbVertex
100
AcDb2dVertex
 10
664.3554590353782
 20
11.74724240121285
 30
0.0
  0
VERTEX
  5
287
330
274
100
AcDbEntity
  8
Cut
 62
   179
420
  1842203
370
     5
100
AcDbVertex
100
AcDb2dVertex
 10
662.8003191544784
 20
4.850511447462841
 30
0.0
  0
VERTEX
  5
288
330
274
100
AcDbEntity
  8
Cut
 62
   179
420
  1842203
370
     5
100
AcDbVertex
100
AcDb2dVertex
 10
660.2844033821699
 20
5.422235241965342
 30
0.0
  0
VERTEX
  5
289
330
274
100
AcDbEntity
  8
Cut
 62
   179
420
  1842203
370
     5
100
AcDbVertex
100
AcDb2dVertex
 10
661.5259588487503
 20
10.87025270745825
 30
0.0
  0
VERTEX
  5
28A
330
274
100
AcDbEntity
  8
Cut
 62
   179
420
  1842203
370
     5
100
AcDbVertex
100
AcDb2dVertex
 10
656.5855520928754
 20
9.339001689087981
 30
0.0
  0
VERTEX
  5
28B
330
274
100
AcDbEntity
  8
Cut
 62
   179
420
  1842203
370
     5
100
AcDbVertex
100
AcDb2dVertex
 10
655.8281115732977
 20
11.78278929158461
 30
0.0
  0
VERTEX
  5
28C
330
274
100
AcDbEntity
  8
Cut
 62
   179
420
  1842203
370
     5
100
AcDbVertex
100
AcDb2dVertex
 10
660.8358053133929
 20
13.33489966562933
 30
0.0
  0
VERTEX
  5
28D
330
274
100
AcDbEntity
  8
Cut
 62
   179
420
  1842203
370
     5
100
AcDbVertex
100
AcDb2dVertex
 10
657.2325243232914
 20
16.68469393122506
 30
0.0
  0
VERTEX
  5
28E
330
274
100
AcDbEntity
  8
Cut
 62
   179
420
  1842203
370
     5
100
AcDbVertex
100
AcDb2dVertex
 10
631.9998653739715
 20
-32.4954697654511
 30
0.0
  0
VERTEX
  5
28F
330
274
100
AcDbEntity
  8
Cut
 62
   179
420
  1842203
370
     5
100
AcDbVertex
100
AcDb2dVertex
 10
679.246469528161
 20
-3.666576747720678
 30
0.0
  0
VERTEX
  5
290
330
274
100
AcDbEntity
  8
Cut
 62
   179
420
  1842203
370
     5
100
AcDbVertex
100
AcDb2dVertex
 10
676.079064328387
 20
-0.7422134754231302
 30
0.0
  0
SEQEND
  5
291
330
274
100
AcDbEntity
  8
Cut
 62
   179
420
  1842203
370
     5
  0
POLYLINE
  5
292
330
22E
100
AcDbEntity
  8
Cut
 62
   179
420
  1842203
370
     5
100
AcDb2dPolyline
 66
     1
 10
0.0
 20
0.0
 30
0.0
  0
VERTEX
  5
293
330
292
100
AcDbEntity
  8
Cut
 62
   179
420
  1842203
370
     5
100
AcDbVertex
100
AcDb2dVertex
 10
667.4833358981135
 20
36.66424601960463
 30
0.0
  0
VERTEX
  5
294
330
292
100
AcDbEntity
  8
Cut
 62
   179
420
  1842203
370
     5
100
AcDbVertex
100
AcDb2dVertex
 10
669.9029447247719
 20
36.10189231610636
 30
0.0
  0
VERTEX
  5
295
330
292
100
AcDbEntity
  8
Cut
 62
   179
420
  1842203
370
     5
100
AcDbVertex
100
AcDb2dVertex
 10
668.3079553543464
 20
29.09482968042196
 30
0.0
  0
VERTEX
  5
296
330
292
100
AcDbEntity
  8
Cut
 62
   179
420
  1842203
370
     5
100
AcDbVertex
100
AcDb2dVertex
 10
669.6574383383074
 20
27.84151139720486
 30
0.0
  0
VERTEX
  5
297
330
292
100
AcDbEntity
  8
Cut
 62
   179
420
  1842203
370
     5
100
AcDbVertex
100
AcDb2dVertex
 10
670.0831662060249
 20
29.64505539157489
 30
0.0
  0
VERTEX
  5
298
330
292
100
AcDbEntity
  8
Cut
 62
   179
420
  1842203
370
     5
100
AcDbVertex
100
AcDb2dVertex
 10
672.5761463793401
 20
29.06569218759766
 30
0.0
  0
VERTEX
  5
299
330
292
100
AcDbEntity
  8
Cut
 62
   179
420
  1842203
370
     5
100
AcDbVertex
100
AcDb2dVertex
 10
671.8295857298576
 20
25.83679140040494
 30
0.0
  0
VERTEX
  5
29A
330
292
100
AcDbEntity
  8
Cut
 62
   179
420
  1842203
370
     5
100
AcDbVertex
100
AcDb2dVertex
 10
674.0305426719418
 20
23.81476146757652
 30
0.0
  0
VERTEX
  5
29B
330
292
100
AcDbEntity
  8
Cut
 62
   179
420
  1842203
370
     5
100
AcDbVertex
100
AcDb2dVertex
 10
679.2865538260431
 20
25.44383886767392
 30
0.0
  0
VERTEX
  5
29C
330
292
100
AcDbEntity
  8
Cut
 62
   179
420
  1842203
370
     5
100
AcDbVertex
100
AcDb2dVertex
 10
679.9764819269798
 20
28.45929358548499
 30
0.0
  0
VERTEX
  5
29D
330
292
100
AcDbEntity
  8
Cut
 62
   179
420
  1842203
370
     5
100
AcDbVertex
100
AcDb2dVertex
 10
677.3953241441593
 20
30.82989903424621
 30
0.0
  0
VERTEX
  5
29E
330
292
100
AcDbEntity
  8
Cut
 62
   179
420
  1842203
370
     5
100
AcDbVertex
100
AcDb2dVertex
 10
679.1236379879937
 20
32.71761996917496
 30
0.0
  0
VERTEX
  5
29F
330
292
100
AcDbEntity
  8
Cut
 62
   179
420
  1842203
370
     5
100
AcDbVertex
100
AcDb2dVertex
 10
680.6105274579995
 20
31.33544084449034
 30
0.0
  0
VERTEX
  5
2A0
330
292
100
AcDbEntity
  8
Cut
 62
   179
420
  1842203
370
     5
100
AcDbVertex
100
AcDb2dVertex
 10
681.029428021233
 20
33.16085260260895
 30
0.0
  0
VERTEX
  5
2A1
330
292
100
AcDbEntity
  8
Cut
 62
   179
420
  1842203
370
     5
100
AcDbVertex
100
AcDb2dVertex
 10
675.8534721475785
 20
37.94623667909674
 30
0.0
  0
VERTEX
  5
2A2
330
292
100
AcDbEntity
  8
Cut
 62
   179
420
  1842203
370
     5
100
AcDbVertex
100
AcDb2dVertex
 10
677.5832676571587
 20
39.83448345297792
 30
0.0
  0
VERTEX
  5
2A3
330
292
100
AcDbEntity
  8
Cut
 62
   179
420
  1842203
370
     5
100
AcDbVertex
100
AcDb2dVertex
 10
681.6865983523454
 20
36.0430977079282
 30
0.0
  0
VERTEX
  5
2A4
330
292
100
AcDbEntity
  8
Cut
 62
   179
420
  1842203
370
     5
100
AcDbVertex
100
AcDb2dVertex
 10
682.8352153780802
 20
41.06114280931246
 30
0.0
  0
VERTEX
  5
2A5
330
292
100
AcDbEntity
  8
Cut
 62
   179
420
  1842203
370
     5
100
AcDbVertex
100
AcDb2dVertex
 10
673.9652821434073
 20
49.29801306350563
 30
0.0
  0
VERTEX
  5
2A6
330
292
100
AcDbEntity
  8
Cut
 62
   179
420
  1842203
370
     5
100
AcDbVertex
100
AcDb2dVertex
 10
667.4833358981135
 20
36.66424601960463
 30
0.0
  0
SEQEND
  5
2A7
330
292
100
AcDbEntity
  8
Cut
 62
   179
420
  1842203
370
     5
  0
POLYLINE
  5
2A8
330
22E
100
AcDbEntity
  8
Cut
 62
   179
420
  1842203
370
     5
100
AcDb2dPolyline
 66
     1
 10
0.0
 20
0.0
 30
0.0
  0
VERTEX
  5
2A9
330
2A8
100
AcDbEntity
  8
Cut
 62
   179
420
  1842203
370
     5
100
AcDbVertex
100
AcDb2dVertex
 10
667.3440833808767
 20
36.39285144191916
 30
0.0
  0
VERTEX
  5
2AA
330
2A8
100
AcDbEntity
  8
Cut
 62
   179
420
  1842203
370
     5
100
AcDbVertex
100
AcDb2dVertex
 10
665.1120551133477
 20
32.04247158884721
 30
0.0
  0
VERTEX
  5
2AB
330
2A8
100
AcDbEntity
  8
Cut
 62
   179
420
  1842203
370
     5
100
AcDbVertex
100
AcDb2dVertex
 10
666.1357463345267
 20
31.10066561625589
 30
0.0
  0
VERTEX
  5
2AC
330
2A8
100
AcDbEntity
  8
Cut
 62
   179
420
  1842203
370
     5
100
AcDbVertex
100
AcDb2dVertex
 10
667.3440833808767
 20
36.39285144191916
 30
0.0
  0
SEQEND
  5
2AD
330
2A8
100
AcDbEntity
  8
Cut
 62
   179
420
  1842203
370
     5
  0
POLYLINE
  5
2AE
330
22E
100
AcDbEntity
  8
Cut
 62
   179
420
  1842203
370
     5
100
AcDb2dPolyline
 66
     1
 10
0.0
 20
0.0
 30
0.0
  0
VERTEX
  5
2AF
330
2AE
100
AcDbEntity
  8
Cut
 62
   179
420
  1842203
370
     5
100
AcDbVertex
100
AcDb2dVertex
 10
696.9082142329959
 20
21.96041255951331
 30
0.0
  0
VERTEX
  5
2B0
330
2AE
100
AcDbEntity
  8
Cut
 62
   179
420
  1842203
370
     5
100
AcDbVertex
100
AcDb2dVertex
 10
701.1140476737464
 20
18.07720552285022
 30
0.0
  0
VERTEX
  5
2B1
330
2AE
100
AcDbEntity
  8
Cut
 62
   179
420
  1842203
370
     5
100
AcDbVertex
100
AcDb2dVertex
 10
699.3855912187233
 20
16.18995031806276
 30
0.0
  0
VERTEX
  5
2B2
330
2AE
100
AcDbEntity
  8
Cut
 62
   179
420
  1842203
370
     5
100
AcDbVertex
100
AcDb2dVertex
 10
694.0787173050524
 20
21.08342637489537
 30
0.0
  0
VERTEX
  5
2B3
330
2AE
100
AcDbEntity
  8
Cut
 62
   179
420
  1842203
370
     5
100
AcDbVertex
100
AcDb2dVertex
 10
692.3265954414213
 20
20.54035779920322
 30
0.0
  0
VERTEX
  5
2B4
330
2AE
100
AcDbEntity
  8
Cut
 62
   179
420
  1842203
370
     5
100
AcDbVertex
100
AcDb2dVertex
 10
693.674567684729
 20
19.28656681778512
 30
0.0
  0
VERTEX
  5
2B5
330
2AE
100
AcDbEntity
  8
Cut
 62
   179
420
  1842203
370
     5
100
AcDbVertex
100
AcDb2dVertex
 10
691.946262361888
 20
17.39879875856508
 30
0.0
  0
VERTEX
  5
2B6
330
2AE
100
AcDbEntity
  8
Cut
 62
   179
420
  1842203
370
     5
100
AcDbVertex
100
AcDb2dVertex
 10
689.4970952547934
 20
19.66336810544927
 30
0.0
  0
VERTEX
  5
2B7
330
2AE
100
AcDbEntity
  8
Cut
 62
   179
420
  1842203
370
     5
100
AcDbVertex
100
AcDb2dVertex
 10
686.6000361160686
 20
18.76545138618417
 30
0.0
  0
VERTEX
  5
2B8
330
2AE
100
AcDbEntity
  8
Cut
 62
   179
420
  1842203
370
     5
100
AcDbVertex
100
AcDb2dVertex
 10
685.3915805364492
 20
13.44954813969319
 30
0.0
  0
VERTEX
  5
2B9
330
2AE
100
AcDbEntity
  8
Cut
 62
   179
420
  1842203
370
     5
100
AcDbVertex
100
AcDb2dVertex
 10
687.7027637000471
 20
11.31589205382446
 30
0.0
  0
VERTEX
  5
2BA
330
2AE
100
AcDbEntity
  8
Cut
 62
   179
420
  1842203
370
     5
100
AcDbVertex
100
AcDb2dVertex
 10
691.04876143085
 20
12.35297590908327
 30
0.0
  0
VERTEX
  5
2BB
330
2AE
100
AcDbEntity
  8
Cut
 62
   179
420
  1842203
370
     5
100
AcDbVertex
100
AcDb2dVertex
 10
691.806367119162
 20
9.90866241741902
 30
0.0
  0
VERTEX
  5
2BC
330
2AE
100
AcDbEntity
  8
Cut
 62
   179
420
  1842203
370
     5
100
AcDbVertex
100
AcDb2dVertex
 10
689.8749834977315
 20
9.310039574119148
 30
0.0
  0
VERTEX
  5
2BD
330
2AE
100
AcDbEntity
  8
Cut
 62
   179
420
  1842203
370
     5
100
AcDbVertex
100
AcDb2dVertex
 10
691.2530234189996
 20
8.041109832962938
 30
0.0
  0
VERTEX
  5
2BE
330
2AE
100
AcDbEntity
  8
Cut
 62
   179
420
  1842203
370
     5
100
AcDbVertex
100
AcDb2dVertex
 10
698.012517172773
 20
10.13619554709017
 30
0.0
  0
VERTEX
  5
2BF
330
2AE
100
AcDbEntity
  8
Cut
 62
   179
420
  1842203
370
     5
100
AcDbVertex
100
AcDb2dVertex
 10
698.6256109347346
 20
8.158155184680819
 30
0.0
  0
VERTEX
  5
2C0
330
2AE
100
AcDbEntity
  8
Cut
 62
   179
420
  1842203
370
     5
100
AcDbVertex
100
AcDb2dVertex
 10
710.4786664689055
 20
15.39065420594416
 30
0.0
  0
VERTEX
  5
2C1
330
2AE
100
AcDbEntity
  8
Cut
 62
   179
420
  1842203
370
     5
100
AcDbVertex
100
AcDb2dVertex
 10
701.7784491348058
 20
23.4699214865758
 30
0.0
  0
VERTEX
  5
2C2
330
2AE
100
AcDbEntity
  8
Cut
 62
   179
420
  1842203
370
     5
100
AcDbVertex
100
AcDb2dVertex
 10
696.9082142329959
 20
21.96041255951331
 30
0.0
  0
SEQEND
  5
2C3
330
2AE
100
AcDbEntity
  8
Cut
 62
   179
420
  1842203
370
     5
  0
POLYLINE
  5
2C4
330
22E
100
AcDbEntity
  8
Cut
 62
   179
420
  1842203
370
     5
100
AcDb2dPolyline
 66
     1
 10
0.0
 20
0.0
 30
0.0
  0
VERTEX
  5
2C5
330
2C4
100
AcDbEntity
  8
Cut
 62
   179
420
  1842203
370
     5
100
AcDbVertex
100
AcDb2dVertex
 10
684.1790529008712
 20
35.39003454107615
 30
0.0
  0
VERTEX
  5
2C6
330
2C4
100
AcDbEntity
  8
Cut
 62
   179
420
  1842203
370
     5
100
AcDbVertex
100
AcDb2dVertex
 10
687.7502389516162
 20
36.49691324856645
 30
0.0
  0
VERTEX
  5
2C7
330
2C4
100
AcDbEntity
  8
Cut
 62
   179
420
  1842203
370
     5
100
AcDbVertex
100
AcDb2dVertex
 10
685.0098135238003
 20
39.04174961802217
 30
0.0
  0
VERTEX
  5
2C8
330
2C4
100
AcDbEntity
  8
Cut
 62
   179
420
  1842203
370
     5
100
AcDbVertex
100
AcDb2dVertex
 10
684.1790529008712
 20
35.39003454107615
 30
0.0
  0
SEQEND
  5
2C9
330
2C4
100
AcDbEntity
  8
Cut
 62
   179
420
  1842203
370
     5
  0
ENDBLK
  5
231
330
22E
100
AcDbEntity
  8
0
100
AcDbBlockEnd
  0
BLOCK
  5
2CC
330
2CA
100
AcDbEntity
  8
0
100
AcDbBlockBegin
  2
block 6
 70
     0
 10
0.0
 20
0.0
 30
0.0
  3
block 6
  1

  0
POLYLINE
  5
2CE
330
2CA
100
AcDbEntity
  8
Cut
 62
   179
420
  1842203
370
     5
100
AcDb2dPolyline
 66
     1
 10
0.0
 20
0.0
 30
0.0
  0
VERTEX
  5
2CF
330
2CE
100
AcDbEntity
  8
Cut
 62
   179
420
  1842203
370
     5
100
AcDbVertex
100
AcDb2dVertex
 10
628.1913035928003
 20
56.89303017341003
 30
0.0
  0
VERTEX
  5
2D0
330
2CE
100
AcDbEntity
  8
Cut
 62
   179
420
  1842203
370
     5
100
AcDbVertex
100
AcDb2dVertex
 10
628.7680323572469
 20
55.16585601424665
 30
0.0
  0
VERTEX
  5
2D1
330
2CE
100
AcDbEntity
  8
Cut
 62
   179
420
  1842203
370
     5
100
AcDbVertex
100
AcDb2dVertex
 10
629.9937719529293
 20
56.56251789610222
 30
0.0
  0
VERTEX
  5
2D2
330
2CE
100
AcDbEntity
  8
Cut
 62
   179
420
  1842203
370
     5
100
AcDbVertex
100
AcDb2dVertex
 10
631.935088814137
 20
54.85877472007363
 30
0.0
  0
VERTEX
  5
2D3
330
2CE
100
AcDbEntity
  8
Cut
 62
   179
420
  1842203
370
     5
100
AcDbVertex
100
AcDb2dVertex
 10
629.7322541004582
 20
52.34878115097466
 30
0.0
  0
VERTEX
  5
2D4
330
2CE
100
AcDbEntity
  8
Cut
 62
   179
420
  1842203
370
     5
100
AcDbVertex
100
AcDb2dVertex
 10
630.6985922584553
 20
49.50016475219544
 30
0.0
  0
VERTEX
  5
2D5
330
2CE
100
AcDbEntity
  8
Cut
 62
   179
420
  1842203
370
     5
100
AcDbVertex
100
AcDb2dVertex
 10
636.0436250176917
 20
48.43681815915429
 30
0.0
  0
VERTEX
  5
2D6
330
2CE
100
AcDbEntity
  8
Cut
 62
   179
420
  1842203
370
     5
100
AcDbVertex
100
AcDb2dVertex
 10
638.1067164740301
 20
50.78758822059093
 30
0.0
  0
VERTEX
  5
2D7
330
2CE
100
AcDbEntity
  8
Cut
 62
   179
420
  1842203
370
     5
100
AcDbVertex
100
AcDb2dVertex
 10
636.9942103090599
 20
54.11038932375153
 30
0.0
  0
VERTEX
  5
2D8
330
2CE
100
AcDbEntity
  8
Cut
 62
   179
420
  1842203
370
     5
100
AcDbVertex
100
AcDb2dVertex
 10
639.4044528321693
 20
54.93510464036155
 30
0.0
  0
VERTEX
  5
2D9
330
2CE
100
AcDbEntity
  8
Cut
 62
   179
420
  1842203
370
     5
100
AcDbVertex
100
AcDb2dVertex
 10
640.060707373273
 20
53.0140376808133
 30
0.0
  0
VERTEX
  5
2DA
330
2CE
100
AcDbEntity
  8
Cut
 62
   179
420
  1842203
370
     5
100
AcDbVertex
100
AcDb2dVertex
 10
641.2853796770056
 20
54.40947322656214
 30
0.0
  0
VERTEX
  5
2DB
330
2CE
100
AcDbEntity
  8
Cut
 62
   179
420
  1842203
370
     5
100
AcDbVertex
100
AcDb2dVertex
 10
639.1999696930075
 20
60.59565411766338
 30
0.0
  0
VERTEX
  5
2DC
330
2CE
100
AcDbEntity
  8
Cut
 62
   179
420
  1842203
370
     5
100
AcDbVertex
100
AcDb2dVertex
 10
632.6049386286019
 20
61.92211767070611
 30
0.0
  0
VERTEX
  5
2DD
330
2CE
100
AcDbEntity
  8
Cut
 62
   179
420
  1842203
370
     5
100
AcDbVertex
100
AcDb2dVertex
 10
628.1913035928003
 20
56.89303017341003
 30
0.0
  0
SEQEND
  5
2DE
330
2CE
100
AcDbEntity
  8
Cut
 62
   179
420
  1842203
370
     5
  0
POLYLINE
  5
2DF
330
2CA
100
AcDbEntity
  8
Cut
 62
   179
420
  1842203
370
     5
100
AcDb2dPolyline
 66
     1
 10
0.0
 20
0.0
 30
0.0
  0
VERTEX
  5
2E0
330
2DF
100
AcDbEntity
  8
Cut
 62
   179
420
  1842203
370
     5
100
AcDbVertex
100
AcDb2dVertex
 10
625.9582911994864
 20
36.7670618171199
 30
0.0
  0
VERTEX
  5
2E1
330
2DF
100
AcDbEntity
  8
Cut
 62
   179
420
  1842203
370
     5
100
AcDbVertex
100
AcDb2dVertex
 10
624.190167840374
 20
41.97864049378168
 30
0.0
  0
VERTEX
  5
2E2
330
2DF
100
AcDbEntity
  8
Cut
 62
   179
420
  1842203
370
     5
100
AcDbVertex
100
AcDb2dVertex
 10
621.1719058134673
 20
42.59476701477719
 30
0.0
  0
VERTEX
  5
2E3
330
2DF
100
AcDbEntity
  8
Cut
 62
   179
420
  1842203
370
     5
100
AcDbVertex
100
AcDb2dVertex
 10
618.8452918965758
 20
39.94371962787699
 30
0.0
  0
VERTEX
  5
2E4
330
2DF
100
AcDbEntity
  8
Cut
 62
   179
420
  1842203
370
     5
100
AcDbVertex
100
AcDb2dVertex
 10
616.9215611292826
 20
41.63202156314158
 30
0.0
  0
VERTEX
  5
2E5
330
2DF
100
AcDbEntity
  8
Cut
 62
   179
420
  1842203
370
     5
100
AcDbVertex
100
AcDb2dVertex
 10
618.2712783206534
 20
43.16994648223609
 30
0.0
  0
VERTEX
  5
2E6
330
2DF
100
AcDbEntity
  8
Cut
 62
   179
420
  1842203
370
     5
100
AcDbVertex
100
AcDb2dVertex
 10
616.4340158732147
 20
43.53098676266205
 30
0.0
  0
VERTEX
  5
2E7
330
2DF
100
AcDbEntity
  8
Cut
 62
   179
420
  1842203
370
     5
100
AcDbVertex
100
AcDb2dVertex
 10
613.2676898415109
 20
39.92313082817758
 30
0.0
  0
VERTEX
  5
2E8
330
2DF
100
AcDbEntity
  8
Cut
 62
   179
420
  1842203
370
     5
100
AcDbVertex
100
AcDb2dVertex
 10
613.8461537783977
 20
32.31444158251409
 30
0.0
  0
VERTEX
  5
2E9
330
2DF
100
AcDbEntity
  8
Cut
 62
   179
420
  1842203
370
     5
100
AcDbVertex
100
AcDb2dVertex
 10
620.824568861039
 20
30.91749631999255
 30
0.0
  0
VERTEX
  5
2EA
330
2DF
100
AcDbEntity
  8
Cut
 62
   179
420
  1842203
370
     5
100
AcDbVertex
100
AcDb2dVertex
 10
622.0503272360316
 20
32.31415442475143
 30
0.0
  0
VERTEX
  5
2EB
330
2DF
100
AcDbEntity
  8
Cut
 62
   179
420
  1842203
370
     5
100
AcDbVertex
100
AcDb2dVertex
 10
620.2296050242065
 20
32.66096519249175
 30
0.0
  0
VERTEX
  5
2EC
330
2DF
100
AcDbEntity
  8
Cut
 62
   179
420
  1842203
370
     5
100
AcDbVertex
100
AcDb2dVertex
 10
620.7316437413617
 20
35.1900761026482
 30
0.0
  0
VERTEX
  5
2ED
330
2DF
100
AcDbEntity
  8
Cut
 62
   179
420
  1842203
370
     5
100
AcDbVertex
100
AcDb2dVertex
 10
624.0043190795532
 20
34.54060857980117
 30
0.0
  0
VERTEX
  5
2EE
330
2DF
100
AcDbEntity
  8
Cut
 62
   179
420
  1842203
370
     5
100
AcDbVertex
100
AcDb2dVertex
 10
625.9582911994864
 20
36.7670618171199
 30
0.0
  0
SEQEND
  5
2EF
330
2DF
100
AcDbEntity
  8
Cut
 62
   179
420
  1842203
370
     5
  0
POLYLINE
  5
2F0
330
2CA
100
AcDbEntity
  8
Cut
 62
   179
420
  1842203
370
     5
100
AcDb2dPolyline
 66
     1
 10
0.0
 20
0.0
 30
0.0
  0
VERTEX
  5
2F1
330
2F0
100
AcDbEntity
  8
Cut
 62
   179
420
  1842203
370
     5
100
AcDbVertex
100
AcDb2dVertex
 10
645.5870950068582
 20
59.31100680443667
 30
0.0
  0
VERTEX
  5
2F2
330
2F0
100
AcDbEntity
  8
Cut
 62
   179
420
  1842203
370
     5
100
AcDbVertex
100
AcDb2dVertex
 10
642.1138990215418
 20
60.00957332248753
 30
0.0
  0
VERTEX
  5
2F3
330
2F0
100
AcDbEntity
  8
Cut
 62
   179
420
  1842203
370
     5
100
AcDbVertex
100
AcDb2dVertex
 10
643.2406174813656
 20
56.63736201942562
 30
0.0
  0
VERTEX
  5
2F4
330
2F0
100
AcDbEntity
  8
Cut
 62
   179
420
  1842203
370
     5
100
AcDbVertex
100
AcDb2dVertex
 10
645.5870950068582
 20
59.31100680443667
 30
0.0
  0
SEQEND
  5
2F5
330
2F0
100
AcDbEntity
  8
Cut
 62
   179
420
  1842203
370
     5
  0
POLYLINE
  5
2F6
330
2CA
100
AcDbEntity
  8
Cut
 62
   179
420
  1842203
370
     5
100
AcDb2dPolyline
 66
     1
 10
0.0
 20
0.0
 30
0.0
  0
VERTEX
  5
2F7
330
2F6
100
AcDbEntity
  8
Cut
 62
   179
420
  1842203
370
     5
100
AcDbVertex
100
AcDb2dVertex
 10
642.2753781487628
 20
38.52660787109737
 30
0.0
  0
VERTEX
  5
2F8
330
2F6
100
AcDbEntity
  8
Cut
 62
   179
420
  1842203
370
     5
100
AcDbVertex
100
AcDb2dVertex
 10
639.3084056166201
 20
39.09561678871466
 30
0.0
  0
VERTEX
  5
2F9
330
2F6
100
AcDbEntity
  8
Cut
 62
   179
420
  1842203
370
     5
100
AcDbVertex
100
AcDb2dVertex
 10
635.7104289197321
 20
34.99593644104264
 30
0.0
  0
VERTEX
  5
2FA
330
2F6
100
AcDbEntity
  8
Cut
 62
   179
420
  1842203
370
     5
100
AcDbVertex
100
AcDb2dVertex
 10
636.7181877346499
 20
32.01723178843733
 30
0.0
  0
VERTEX
  5
2FB
330
2F6
100
AcDbEntity
  8
Cut
 62
   179
420
  1842203
370
     5
100
AcDbVertex
100
AcDb2dVertex
 10
640.1570991206179
 20
31.34356614721838
 30
0.0
  0
VERTEX
  5
2FC
330
2F6
100
AcDbEntity
  8
Cut
 62
   179
420
  1842203
370
     5
100
AcDbVertex
100
AcDb2dVertex
 10
639.653833221937
 20
28.81301682215119
 30
0.0
  0
VERTEX
  5
2FD
330
2F6
100
AcDbEntity
  8
Cut
 62
   179
420
  1842203
370
     5
100
AcDbVertex
100
AcDb2dVertex
 10
637.6638340420624
 20
29.21437080591864
 30
0.0
  0
VERTEX
  5
2FE
330
2F6
100
AcDbEntity
  8
Cut
 62
   179
420
  1842203
370
     5
100
AcDbVertex
100
AcDb2dVertex
 10
638.2594222339245
 20
27.47245182577606
 30
0.0
  0
VERTEX
  5
2FF
330
2F6
100
AcDbEntity
  8
Cut
 62
   179
420
  1842203
370
     5
100
AcDbVertex
100
AcDb2dVertex
 10
644.6646985818901
 20
26.18750960487446
 30
0.0
  0
VERTEX
  5
300
330
2F6
100
AcDbEntity
  8
Cut
 62
   179
420
  1842203
370
     5
100
AcDbVertex
100
AcDb2dVertex
 10
648.3771879574545
 20
33.4420690121304
 30
0.0
  0
VERTEX
  5
301
330
2F6
100
AcDbEntity
  8
Cut
 62
   179
420
  1842203
370
     5
100
AcDbVertex
100
AcDb2dVertex
 10
646.9797188852481
 20
37.58766436894022
 30
0.0
  0
VERTEX
  5
302
330
2F6
100
AcDbEntity
  8
Cut
 62
   179
420
  1842203
370
     5
100
AcDbVertex
100
AcDb2dVertex
 10
645.1769834242648
 20
37.91869441972278
 30
0.0
  0
VERTEX
  5
303
330
2F6
100
AcDbEntity
  8
Cut
 62
   179
420
  1842203
370
     5
100
AcDbVertex
100
AcDb2dVertex
 10
645.7726044533773
 20
36.17674441124858
 30
0.0
  0
VERTEX
  5
304
330
2F6
100
AcDbEntity
  8
Cut
 62
   179
420
  1842203
370
     5
100
AcDbVertex
100
AcDb2dVertex
 10
643.3437358221769
 20
35.36628247564692
 30
0.0
  0
VERTEX
  5
305
330
2F6
100
AcDbEntity
  8
Cut
 62
   179
420
  1842203
370
     5
100
AcDbVertex
100
AcDb2dVertex
 10
642.2753781487628
 20
38.52660787109737
 30
0.0
  0
SEQEND
  5
306
330
2F6
100
AcDbEntity
  8
Cut
 62
   179
420
  1842203
370
     5
  0
POLYLINE
  5
307
330
2CA
100
AcDbEntity
  8
Cut
 62
   179
420
  1842203
370
     5
100
AcDb2dPolyline
 66
     1
 10
0.0
 20
0.0
 30
0.0
  0
VERTEX
  5
308
330
307
100
AcDbEntity
  8
Cut
 62
   179
420
  1842203
370
     5
100
AcDbVertex
100
AcDb2dVertex
 10
630.3540657830197
 20
46.58066653298634
 30
0.0
  0
VERTEX
  5
309
330
307
100
AcDbEntity
  8
Cut
 62
   179
420
  1842203
370
     5
100
AcDbVertex
100
AcDb2dVertex
 10
627.018618533875
 20
42.78011504510852
 30
0.0
  0
VERTEX
  5
30A
330
307
100
AcDbEntity
  8
Cut
 62
   179
420
  1842203
370
     5
100
AcDbVertex
100
AcDb2dVertex
 10
628.6255858321953
 20
37.99190568304647
 30
0.0
  0
VERTEX
  5
30B
330
307
100
AcDbEntity
  8
Cut
 62
   179
420
  1842203
370
     5
100
AcDbVertex
100
AcDb2dVertex
 10
633.5998852142201
 20
37.00423381102612
 30
0.0
  0
VERTEX
  5
30C
330
307
100
AcDbEntity
  8
Cut
 62
   179
420
  1842203
370
     5
100
AcDbVertex
100
AcDb2dVertex
 10
636.9353512426743
 20
40.80478152180724
 30
0.0
  0
VERTEX
  5
30D
330
307
100
AcDbEntity
  8
Cut
 62
   179
420
  1842203
370
     5
100
AcDbVertex
100
AcDb2dVertex
 10
635.3101847431016
 20
45.60858963262427
 30
0.0
  0
VERTEX
  5
30E
330
307
100
AcDbEntity
  8
Cut
 62
   179
420
  1842203
370
     5
100
AcDbVertex
100
AcDb2dVertex
 10
630.3540657830197
 20
46.58066653298634
 30
0.0
  0
SEQEND
  5
30F
330
307
100
AcDbEntity
  8
Cut
 62
   179
420
  1842203
370
     5
  0
POLYLINE
  5
310
330
2CA
100
AcDbEntity
  8
Cut
 62
   179
420
  1842203
370
     5
100
AcDb2dPolyline
 66
     1
 10
0.0
 20
0.0
 30
0.0
  0
VERTEX
  5
311
330
310
100
AcDbEntity
  8
Cut
 62
   179
420
  1842203
370
     5
100
AcDbVertex
100
AcDb2dVertex
 10
639.2232799345554
 20
24.65570418967578
 30
0.0
  0
VERTEX
  5
312
330
310
100
AcDbEntity
  8
Cut
 62
   179
420
  1842203
370
     5
100
AcDbVertex
100
AcDb2dVertex
 10
640.8686192368499
 20
19.77014186962108
 30
0.0
  0
VERTEX
  5
313
330
310
100
AcDbEntity
  8
Cut
 62
   179
420
  1842203
370
     5
100
AcDbVertex
100
AcDb2dVertex
 10
638.4424511625069
 20
18.92725400378203
 30
0.0
  0
VERTEX
  5
314
330
310
100
AcDbEntity
  8
Cut
 62
   179
420
  1842203
370
     5
100
AcDbVertex
100
AcDb2dVertex
 10
636.7563813234383
 20
23.9107804283137
 30
0.0
  0
VERTEX
  5
315
330
310
100
AcDbEntity
  8
Cut
 62
   179
420
  1842203
370
     5
100
AcDbVertex
100
AcDb2dVertex
 10
632.972000059273
 20
19.59872702396385
 30
0.0
  0
VERTEX
  5
316
330
310
100
AcDbEntity
  8
Cut
 62
   179
420
  1842203
370
     5
100
AcDbVertex
100
AcDb2dVertex
 10
631.0494853207005
 20
21.28598327940933
 30
0.0
  0
VERTEX
  5
317
330
310
100
AcDbEntity
  8
Cut
 62
   179
420
  1842203
370
     5
100
AcDbVertex
100
AcDb2dVertex
 10
635.8107445310762
 20
26.71116292866285
 30
0.0
  0
VERTEX
  5
318
330
310
100
AcDbEntity
  8
Cut
 62
   179
420
  1842203
370
     5
100
AcDbVertex
100
AcDb2dVertex
 10
635.2161963533862
 20
28.45426976855946
 30
0.0
  0
VERTEX
  5
319
330
310
100
AcDbEntity
  8
Cut
 62
   179
420
  1842203
370
     5
100
AcDbVertex
100
AcDb2dVertex
 10
633.9905028147917
 20
27.05764258595956
 30
0.0
  0
VERTEX
  5
31A
330
310
100
AcDbEntity
  8
Cut
 62
   179
420
  1842203
370
     5
100
AcDbVertex
100
AcDb2dVertex
 10
632.0671389229018
 20
28.7456313785359
 30
0.0
  0
VERTEX
  5
31B
330
310
100
AcDbEntity
  8
Cut
 62
   179
420
  1842203
370
     5
100
AcDbVertex
100
AcDb2dVertex
 10
634.2699266352196
 20
31.25558555355084
 30
0.0
  0
VERTEX
  5
31C
330
310
100
AcDbEntity
  8
Cut
 62
   179
420
  1842203
370
     5
100
AcDbVertex
100
AcDb2dVertex
 10
633.322278477435
 20
34.08997479865137
 30
0.0
  0
VERTEX
  5
31D
330
310
100
AcDbEntity
  8
Cut
 62
   179
420
  1842203
370
     5
100
AcDbVertex
100
AcDb2dVertex
 10
627.9428069470906
 20
35.14957490819506
 30
0.0
  0
VERTEX
  5
31E
330
310
100
AcDbEntity
  8
Cut
 62
   179
420
  1842203
370
     5
100
AcDbVertex
100
AcDb2dVertex
 10
625.8955103187383
 20
32.81681318319088
 30
0.0
  0
VERTEX
  5
31F
330
310
100
AcDbEntity
  8
Cut
 62
   179
420
  1842203
370
     5
100
AcDbVertex
100
AcDb2dVertex
 10
627.0094721570234
 20
29.49483790718141
 30
0.0
  0
VERTEX
  5
320
330
310
100
AcDbEntity
  8
Cut
 62
   179
420
  1842203
370
     5
100
AcDbVertex
100
AcDb2dVertex
 10
624.5828696442247
 20
28.652315851041
 30
0.0
  0
VERTEX
  5
321
330
310
100
AcDbEntity
  8
Cut
 62
   179
420
  1842203
370
     5
100
AcDbVertex
100
AcDb2dVertex
 10
623.9415184752173
 20
30.59035902814018
 30
0.0
  0
VERTEX
  5
322
330
310
100
AcDbEntity
  8
Cut
 62
   179
420
  1842203
370
     5
100
AcDbVertex
100
AcDb2dVertex
 10
622.7008745631631
 20
29.17671623390855
 30
0.0
  0
VERTEX
  5
323
330
310
100
AcDbEntity
  8
Cut
 62
   179
420
  1842203
370
     5
100
AcDbVertex
100
AcDb2dVertex
 10
624.9794173223734
 20
22.48406348689974
 30
0.0
  0
VERTEX
  5
324
330
310
100
AcDbEntity
  8
Cut
 62
   179
420
  1842203
370
     5
100
AcDbVertex
100
AcDb2dVertex
 10
622.5356434305301
 20
21.65661594409398
 30
0.0
  0
VERTEX
  5
325
330
310
100
AcDbEntity
  8
Cut
 62
   179
420
  1842203
370
     5
100
AcDbVertex
100
AcDb2dVertex
 10
620.7468827196448
 20
26.95026207885816
 30
0.0
  0
VERTEX
  5
326
330
310
100
AcDbEntity
  8
Cut
 62
   179
420
  1842203
370
     5
100
AcDbVertex
100
AcDb2dVertex
 10
617.3351423081641
 20
23.06279812926176
 30
0.0
  0
VERTEX
  5
327
330
310
100
AcDbEntity
  8
Cut
 62
   179
420
  1842203
370
     5
100
AcDbVertex
100
AcDb2dVertex
 10
615.4121940754133
 20
24.75042488923422
 30
0.0
  0
VERTEX
  5
328
330
310
100
AcDbEntity
  8
Cut
 62
   179
420
  1842203
370
     5
100
AcDbVertex
100
AcDb2dVertex
 10
618.8703992929044
 20
28.69083855806447
 30
0.0
  0
VERTEX
  5
329
330
310
100
AcDbEntity
  8
Cut
 62
   179
420
  1842203
370
     5
100
AcDbVertex
100
AcDb2dVertex
 10
614.047691220377
 20
29.66358845531535
 30
0.0
  0
VERTEX
  5
32A
330
310
100
AcDbEntity
  8
Cut
 62
   179
420
  1842203
370
     5
100
AcDbVertex
100
AcDb2dVertex
 10
618.237993135026
 20
-25.45280609974109
 30
0.0
  0
VERTEX
  5
32B
330
310
100
AcDbEntity
  8
Cut
 62
   179
420
  1842203
370
     5
100
AcDbVertex
100
AcDb2dVertex
 10
643.4520358478147
 20
23.81786191692215
 30
0.0
  0
VERTEX
  5
32C
330
310
100
AcDbEntity
  8
Cut
 62
   179
420
  1842203
370
     5
100
AcDbVertex
100
AcDb2dVertex
 10
639.2232799345554
 20
24.65570418967578
 30
0.0
  0
SEQEND
  5
32D
330
310
100
AcDbEntity
  8
Cut
 62
   179
420
  1842203
370
     5
  0
POLYLINE
  5
32E
330
2CA
100
AcDbEntity
  8
Cut
 62
   179
420
  1842203
370
     5
100
AcDb2dPolyline
 66
     1
 10
0.0
 20
0.0
 30
0.0
  0
VERTEX
  5
32F
330
32E
100
AcDbEntity
  8
Cut
 62
   179
420
  1842203
370
     5
100
AcDbVertex
100
AcDb2dVertex
 10
612.3453606799507
 20
52.0547409563795
 30
0.0
  0
VERTEX
  5
330
330
32E
100
AcDbEntity
  8
Cut
 62
   179
420
  1842203
370
     5
100
AcDbVertex
100
AcDb2dVertex
 10
614.702129776523
 20
52.83984476310359
 30
0.0
  0
VERTEX
  5
331
330
32E
100
AcDbEntity
  8
Cut
 62
   179
420
  1842203
370
     5
100
AcDbVertex
100
AcDb2dVertex
 10
617.0043603228291
 20
46.03230097816602
 30
0.0
  0
VERTEX
  5
332
330
32E
100
AcDbEntity
  8
Cut
 62
   179
420
  1842203
370
     5
100
AcDbVertex
100
AcDb2dVertex
 10
618.809894226665
 20
45.66904023827457
 30
0.0
  0
VERTEX
  5
333
330
32E
100
AcDbEntity
  8
Cut
 62
   179
420
  1842203
370
     5
100
AcDbVertex
100
AcDb2dVertex
 10
618.2302785873989
 20
47.42917116172924
 30
0.0
  0
VERTEX
  5
334
330
32E
100
AcDbEntity
  8
Cut
 62
   179
420
  1842203
370
     5
100
AcDbVertex
100
AcDb2dVertex
 10
620.6584909705876
 20
48.23811892813522
 30
0.0
  0
VERTEX
  5
335
330
32E
100
AcDbEntity
  8
Cut
 62
   179
420
  1842203
370
     5
100
AcDbVertex
100
AcDb2dVertex
 10
621.7095021946855
 20
45.09510628041708
 30
0.0
  0
VERTEX
  5
336
330
32E
100
AcDbEntity
  8
Cut
 62
   179
420
  1842203
370
     5
100
AcDbVertex
100
AcDb2dVertex
 10
624.6427187157118
 20
44.52147107322597
 30
0.0
  0
VERTEX
  5
337
330
32E
100
AcDbEntity
  8
Cut
 62
   179
420
  1842203
370
     5
100
AcDbVertex
100
AcDb2dVertex
 10
628.2724054047989
 20
48.65728066345308
 30
0.0
  0
VERTEX
  5
338
330
32E
100
AcDbEntity
  8
Cut
 62
   179
420
  1842203
370
     5
100
AcDbVertex
100
AcDb2dVertex
 10
627.2846634131482
 20
51.58871950769983
 30
0.0
  0
VERTEX
  5
339
330
32E
100
AcDbEntity
  8
Cut
 62
   179
420
  1842203
370
     5
100
AcDbVertex
100
AcDb2dVertex
 10
623.8451276721473
 20
52.26083525656183
 30
0.0
  0
VERTEX
  5
33A
330
32E
100
AcDbEntity
  8
Cut
 62
   179
420
  1842203
370
     5
100
AcDbVertex
100
AcDb2dVertex
 10
624.3320560313808
 20
54.77349517066414
 30
0.0
  0
VERTEX
  5
33B
330
32E
100
AcDbEntity
  8
Cut
 62
   179
420
  1842203
370
     5
100
AcDbVertex
100
AcDb2dVertex
 10
626.3220834333089
 20
54.37218435807806
 30
0.0
  0
VERTEX
  5
33C
330
32E
100
AcDbEntity
  8
Cut
 62
   179
420
  1842203
370
     5
100
AcDbVertex
100
AcDb2dVertex
 10
625.7252184649294
 20
56.14739081876943
 30
0.0
  0
VERTEX
  5
33D
330
32E
100
AcDbEntity
  8
Cut
 62
   179
420
  1842203
370
     5
100
AcDbVertex
100
AcDb2dVertex
 10
618.8114317899506
 20
57.52215399053534
 30
0.0
  0
VERTEX
  5
33E
330
32E
100
AcDbEntity
  8
Cut
 62
   179
420
  1842203
370
     5
100
AcDbVertex
100
AcDb2dVertex
 10
619.2993485467968
 20
60.03603656981998
 30
0.0
  0
VERTEX
  5
33F
330
32E
100
AcDbEntity
  8
Cut
 62
   179
420
  1842203
370
     5
100
AcDbVertex
100
AcDb2dVertex
 10
624.7791669576999
 20
58.94814004654824
 30
0.0
  0
VERTEX
  5
340
330
32E
100
AcDbEntity
  8
Cut
 62
   179
420
  1842203
370
     5
100
AcDbVertex
100
AcDb2dVertex
 10
623.1358842712457
 20
63.82663568800628
 30
0.0
  0
VERTEX
  5
341
330
32E
100
AcDbEntity
  8
Cut
 62
   179
420
  1842203
370
     5
100
AcDbVertex
100
AcDb2dVertex
 10
611.2689184892232
 20
66.21344743177681
 30
0.0
  0
VERTEX
  5
342
330
32E
100
AcDbEntity
  8
Cut
 62
   179
420
  1842203
370
     5
100
AcDbVertex
100
AcDb2dVertex
 10
612.3453606799507
 20
52.0547409563795
 30
0.0
  0
SEQEND
  5
343
330
32E
100
AcDbEntity
  8
Cut
 62
   179
420
  1842203
370
     5
  0
POLYLINE
  5
344
330
2CA
100
AcDbEntity
  8
Cut
 62
   179
420
  1842203
370
     5
100
AcDb2dPolyline
 66
     1
 10
0.0
 20
0.0
 30
0.0
  0
VERTEX
  5
345
330
344
100
AcDbEntity
  8
Cut
 62
   179
420
  1842203
370
     5
100
AcDbVertex
100
AcDb2dVertex
 10
612.368476452856
 20
51.75058319896334
 30
0.0
  0
VERTEX
  5
346
330
344
100
AcDbEntity
  8
Cut
 62
   179
420
  1842203
370
     5
100
AcDbVertex
100
AcDb2dVertex
 10
612.7391446090993
 20
46.87509756458608
 30
0.0
  0
VERTEX
  5
347
330
344
100
AcDbEntity
  8
Cut
 62
   179
420
  1842203
370
     5
100
AcDbVertex
100
AcDb2dVertex
 10
614.104116596175
 20
46.60715413618325
 30
0.0
  0
VERTEX
  5
348
330
344
100
AcDbEntity
  8
Cut
 62
   179
420
  1842203
370
     5
100
AcDbVertex
100
AcDb2dVertex
 10
612.368476452856
 20
51.75058319896334
 30
0.0
  0
SEQEND
  5
349
330
344
100
AcDbEntity
  8
Cut
 62
   179
420
  1842203
370
     5
  0
POLYLINE
  5
34A
330
2CA
100
AcDbEntity
  8
Cut
 62
   179
420
  1842203
370
     5
100
AcDb2dPolyline
 66
     1
 10
0.0
 20
0.0
 30
0.0
  0
VERTEX
  5
34B
330
34A
100
AcDbEntity
  8
Cut
 62
   179
420
  1842203
370
     5
100
AcDbVertex
100
AcDb2dVertex
 10
645.1165075243499
 20
54.89694396594292
 30
0.0
  0
VERTEX
  5
34C
330
34A
100
AcDbEntity
  8
Cut
 62
   179
420
  1842203
370
     5
100
AcDbVertex
100
AcDb2dVertex
 10
650.7317040264015
 20
53.78433439188765
 30
0.0
  0
VERTEX
  5
34D
330
34A
100
AcDbEntity
  8
Cut
 62
   179
420
  1842203
370
     5
100
AcDbVertex
100
AcDb2dVertex
 10
650.2444106803172
 20
51.27199701013159
 30
0.0
  0
VERTEX
  5
34E
330
34A
100
AcDbEntity
  8
Cut
 62
   179
420
  1842203
370
     5
100
AcDbVertex
100
AcDb2dVertex
 10
643.1625166251032
 20
52.67049450572055
 30
0.0
  0
VERTEX
  5
34F
330
34A
100
AcDbEntity
  8
Cut
 62
   179
420
  1842203
370
     5
100
AcDbVertex
100
AcDb2dVertex
 10
641.952542691076
 20
51.29179309428903
 30
0.0
  0
VERTEX
  5
350
330
34A
100
AcDbEntity
  8
Cut
 62
   179
420
  1842203
370
     5
100
AcDbVertex
100
AcDb2dVertex
 10
643.7570356364664
 20
50.92733979981616
 30
0.0
  0
VERTEX
  5
351
330
34A
100
AcDbEntity
  8
Cut
 62
   179
420
  1842203
370
     5
100
AcDbVertex
100
AcDb2dVertex
 10
643.270139170211
 20
48.41464416255453
 30
0.0
  0
VERTEX
  5
352
330
34A
100
AcDbEntity
  8
Cut
 62
   179
420
  1842203
370
     5
100
AcDbVertex
100
AcDb2dVertex
 10
639.9985508475582
 20
49.06533893923896
 30
0.0
  0
VERTEX
  5
353
330
34A
100
AcDbEntity
  8
Cut
 62
   179
420
  1842203
370
     5
100
AcDbVertex
100
AcDb2dVertex
 10
637.9978976941037
 20
46.78573523517436
 30
0.0
  0
VERTEX
  5
354
330
34A
100
AcDbEntity
  8
Cut
 62
   179
420
  1842203
370
     5
100
AcDbVertex
100
AcDb2dVertex
 10
639.7458320760959
 20
41.62202362333942
 30
0.0
  0
VERTEX
  5
355
330
34A
100
AcDbEntity
  8
Cut
 62
   179
420
  1842203
370
     5
100
AcDbVertex
100
AcDb2dVertex
 10
642.8313619377442
 20
41.01082694358572
 30
0.0
  0
VERTEX
  5
356
330
34A
100
AcDbEntity
  8
Cut
 62
   179
420
  1842203
370
     5
100
AcDbVertex
100
AcDb2dVertex
 10
645.1420315240931
 20
43.64370555835552
 30
0.0
  0
VERTEX
  5
357
330
34A
100
AcDbEntity
  8
Cut
 62
   179
420
  1842203
370
     5
100
AcDbVertex
100
AcDb2dVertex
 10
647.0653954159857
 20
41.95571676577983
 30
0.0
  0
VERTEX
  5
358
330
34A
100
AcDbEntity
  8
Cut
 62
   179
420
  1842203
370
     5
100
AcDbVertex
100
AcDb2dVertex
 10
645.7316234994329
 20
40.43596531364408
 30
0.0
  0
VERTEX
  5
359
330
34A
100
AcDbEntity
  8
Cut
 62
   179
420
  1842203
370
     5
100
AcDbVertex
100
AcDb2dVertex
 10
647.5696629219433
 20
40.07431936260966
 30
0.0
  0
VERTEX
  5
35A
330
34A
100
AcDbEntity
  8
Cut
 62
   179
420
  1842203
370
     5
100
AcDbVertex
100
AcDb2dVertex
 10
652.2376164032108
 20
45.39318674708137
 30
0.0
  0
VERTEX
  5
35B
330
34A
100
AcDbEntity
  8
Cut
 62
   179
420
  1842203
370
     5
100
AcDbVertex
100
AcDb2dVertex
 10
653.7940891657732
 20
44.02719985999909
 30
0.0
  0
VERTEX
  5
35C
330
34A
100
AcDbEntity
  8
Cut
 62
   179
420
  1842203
370
     5
100
AcDbVertex
100
AcDb2dVertex
 10
660.1196900691973
 20
56.38805504074326
 30
0.0
  0
VERTEX
  5
35D
330
34A
100
AcDbEntity
  8
Cut
 62
   179
420
  1842203
370
     5
100
AcDbVertex
100
AcDb2dVertex
 10
648.4797849348082
 20
58.72919790585708
 30
0.0
  0
VERTEX
  5
35E
330
34A
100
AcDbEntity
  8
Cut
 62
   179
420
  1842203
370
     5
100
AcDbVertex
100
AcDb2dVertex
 10
645.1165075243499
 20
54.89694396594292
 30
0.0
  0
SEQEND
  5
35F
330
34A
100
AcDbEntity
  8
Cut
 62
   179
420
  1842203
370
     5
  0
POLYLINE
  5
360
330
2CA
100
AcDbEntity
  8
Cut
 62
   179
420
  1842203
370
     5
100
AcDb2dPolyline
 66
     1
 10
0.0
 20
0.0
 30
0.0
  0
VERTEX
  5
361
330
360
100
AcDbEntity
  8
Cut
 62
   179
420
  1842203
370
     5
100
AcDbVertex
100
AcDb2dVertex
 10
627.2454485894973
 20
59.69397923097241
 30
0.0
  0
VERTEX
  5
362
330
360
100
AcDbEntity
  8
Cut
 62
   179
420
  1842203
370
     5
100
AcDbVertex
100
AcDb2dVertex
 10
629.7116289833949
 20
62.50405121348336
 30
0.0
  0
VERTEX
  5
363
330
360
100
AcDbEntity
  8
Cut
 62
   179
420
  1842203
370
     5
100
AcDbVertex
100
AcDb2dVertex
 10
626.0452502272374
 20
63.24147272737666
 30
0.0
  0
VERTEX
  5
364
330
360
100
AcDbEntity
  8
Cut
 62
   179
420
  1842203
370
     5
100
AcDbVertex
100
AcDb2dVertex
 10
627.2454485894973
 20
59.69397923097241
 30
0.0
  0
SEQEND
  5
365
330
360
100
AcDbEntity
  8
Cut
 62
   179
420
  1842203
370
     5
  0
ENDBLK
  5
2CD
330
2CA
100
AcDbEntity
  8
0
100
AcDbBlockEnd
  0
BLOCK
  5
368
330
366
100
AcDbEntity
  8
0
100
AcDbBlockBegin
  2
block 7
 70
     0
 10
0.0
 20
0.0
 30
0.0
  3
block 7
  1

  0
POLYLINE
  5
36A
330
366
100
AcDbEntity
  8
Cut
 62
   179
420
  1842203
370
     5
100
AcDb2dPolyline
 66
     1
 10
0.0
 20
0.0
 30
0.0
  0
VERTEX
  5
36B
330
36A
100
AcDbEntity
  8
Cut
 62
   179
420
  1842203
370
     5
100
AcDbVertex
100
AcDb2dVertex
 10
717.967313252671
 20
-17.20225731287593
 30
0.0
  0
VERTEX
  5
36C
330
36A
100
AcDbEntity
  8
Cut
 62
   179
420
  1842203
370
     5
100
AcDbVertex
100
AcDb2dVertex
 10
716.6905559639523
 20
-18.50057833232034
 30
0.0
  0
VERTEX
  5
36D
330
36A
100
AcDbEntity
  8
Cut
 62
   179
420
  1842203
370
     5
100
AcDbVertex
100
AcDb2dVertex
 10
718.4915837193183
 20
-18.95818186493167
 30
0.0
  0
VERTEX
  5
36E
330
36A
100
AcDbEntity
  8
Cut
 62
   179
420
  1842203
370
     5
100
AcDbVertex
100
AcDb2dVertex
 10
717.8555262653847
 20
-21.46155616390719
 30
0.0
  0
VERTEX
  5
36F
330
36A
100
AcDbEntity
  8
Cut
 62
   179
420
  1842203
370
     5
100
AcDbVertex
100
AcDb2dVertex
 10
714.6188261294332
 20
-20.63916895423166
 30
0.0
  0
VERTEX
  5
370
330
36A
100
AcDbEntity
  8
Cut
 62
   179
420
  1842203
370
     5
100
AcDbVertex
100
AcDb2dVertex
 10
712.5199576181936
 20
-22.79397191402059
 30
0.0
  0
VERTEX
  5
371
330
36A
100
AcDbEntity
  8
Cut
 62
   179
420
  1842203
370
     5
100
AcDbVertex
100
AcDb2dVertex
 10
714.0004636544946
 20
-28.03879632010891
 30
0.0
  0
VERTEX
  5
372
330
36A
100
AcDbEntity
  8
Cut
 62
   179
420
  1842203
370
     5
100
AcDbVertex
100
AcDb2dVertex
 10
717.0318389531461
 20
-28.80901060048249
 30
0.0
  0
VERTEX
  5
373
330
36A
100
AcDbEntity
  8
Cut
 62
   179
420
  1842203
370
     5
100
AcDbVertex
100
AcDb2dVertex
 10
719.4867605962803
 20
-26.30860326080095
 30
0.0
  0
VERTEX
  5
374
330
36A
100
AcDbEntity
  8
Cut
 62
   179
420
  1842203
370
     5
100
AcDbVertex
100
AcDb2dVertex
 10
721.3162744660814
 20
-28.08125759085828
 30
0.0
  0
VERTEX
  5
375
330
36A
100
AcDbEntity
  8
Cut
 62
   179
420
  1842203
370
     5
100
AcDbVertex
100
AcDb2dVertex
 10
719.9029025974525
 20
-29.53849753224009
 30
0.0
  0
VERTEX
  5
376
330
36A
100
AcDbEntity
  8
Cut
 62
   179
420
  1842203
370
     5
100
AcDbVertex
100
AcDb2dVertex
 10
721.7023530367215
 20
-29.99570725488407
 30
0.0
  0
VERTEX
  5
377
330
36A
100
AcDbEntity
  8
Cut
 62
   179
420
  1842203
370
     5
100
AcDbVertex
100
AcDb2dVertex
 10
726.2663134626409
 20
-25.32794183131767
 30
0.0
  0
VERTEX
  5
378
330
36A
100
AcDbEntity
  8
Cut
 62
   179
420
  1842203
370
     5
100
AcDbVertex
100
AcDb2dVertex
 10
724.4524390835054
 20
-18.84999462292447
 30
0.0
  0
VERTEX
  5
379
330
36A
100
AcDbEntity
  8
Cut
 62
   179
420
  1842203
370
     5
100
AcDbVertex
100
AcDb2dVertex
 10
717.967313252671
 20
-17.20225731287593
 30
0.0
  0
SEQEND
  5
37A
330
36A
100
AcDbEntity
  8
Cut
 62
   179
420
  1842203
370
     5
  0
POLYLINE
  5
37B
330
366
100
AcDbEntity
  8
Cut
 62
   179
420
  1842203
370
     5
100
AcDb2dPolyline
 66
     1
 10
0.0
 20
0.0
 30
0.0
  0
VERTEX
  5
37C
330
37B
100
AcDbEntity
  8
Cut
 62
   179
420
  1842203
370
     5
100
AcDbVertex
100
AcDb2dVertex
 10
699.023032581787
 20
-24.35454201708456
 30
0.0
  0
VERTEX
  5
37D
330
37B
100
AcDbEntity
  8
Cut
 62
   179
420
  1842203
370
     5
100
AcDbVertex
100
AcDb2dVertex
 10
702.8628493406147
 20
-20.41212907896008
 30
0.0
  0
VERTEX
  5
37E
330
37B
100
AcDbEntity
  8
Cut
 62
   179
420
  1842203
370
     5
100
AcDbVertex
100
AcDb2dVertex
 10
702.0407895941056
 20
-17.44333549804088
 30
0.0
  0
VERTEX
  5
37F
330
37B
100
AcDbEntity
  8
Cut
 62
   179
420
  1842203
370
     5
100
AcDbVertex
100
AcDb2dVertex
 10
698.6222030113134
 20
-16.57474448853206
 30
0.0
  0
VERTEX
  5
380
330
37B
100
AcDbEntity
  8
Cut
 62
   179
420
  1842203
370
     5
100
AcDbVertex
100
AcDb2dVertex
 10
699.2524920223976
 20
-14.09405118782873
 30
0.0
  0
VERTEX
  5
381
330
37B
100
AcDbEntity
  8
Cut
 62
   179
420
  1842203
370
     5
100
AcDbVertex
100
AcDb2dVertex
 10
701.2356827299958
 20
-14.59794023389406
 30
0.0
  0
VERTEX
  5
382
330
37B
100
AcDbEntity
  8
Cut
 62
   179
420
  1842203
370
     5
100
AcDbVertex
100
AcDb2dVertex
 10
700.7228050896599
 20
-12.797151542542
 30
0.0
  0
VERTEX
  5
383
330
37B
100
AcDbEntity
  8
Cut
 62
   179
420
  1842203
370
     5
100
AcDbVertex
100
AcDb2dVertex
 10
696.0703931576912
 20
-11.61507362704314
 30
0.0
  0
VERTEX
  5
384
330
37B
100
AcDbEntity
  8
Cut
 62
   179
420
  1842203
370
     5
100
AcDbVertex
100
AcDb2dVertex
 10
689.5546485913845
 20
-15.58645189031354
 30
0.0
  0
VERTEX
  5
385
330
37B
100
AcDbEntity
  8
Cut
 62
   179
420
  1842203
370
     5
100
AcDbVertex
100
AcDb2dVertex
 10
691.4798729263351
 20
-22.43796591220697
 30
0.0
  0
VERTEX
  5
386
330
37B
100
AcDbEntity
  8
Cut
 62
   179
420
  1842203
370
     5
100
AcDbVertex
100
AcDb2dVertex
 10
693.2809058466963
 20
-22.89558789073505
 30
0.0
  0
VERTEX
  5
387
330
37B
100
AcDbEntity
  8
Cut
 62
   179
420
  1842203
370
     5
100
AcDbVertex
100
AcDb2dVertex
 10
692.7628642269165
 20
-21.11599806118614
 30
0.0
  0
VERTEX
  5
388
330
37B
100
AcDbEntity
  8
Cut
 62
   179
420
  1842203
370
     5
100
AcDbVertex
100
AcDb2dVertex
 10
695.2440574481487
 20
-20.41448179743151
 30
0.0
  0
VERTEX
  5
389
330
37B
100
AcDbEntity
  8
Cut
 62
   179
420
  1842203
370
     5
100
AcDbVertex
100
AcDb2dVertex
 10
696.1519741024797
 20
-23.62507353124242
 30
0.0
  0
VERTEX
  5
38A
330
37B
100
AcDbEntity
  8
Cut
 62
   179
420
  1842203
370
     5
100
AcDbVertex
100
AcDb2dVertex
 10
699.023032581787
 20
-24.35454201708456
 30
0.0
  0
SEQEND
  5
38B
330
37B
100
AcDbEntity
  8
Cut
 62
   179
420
  1842203
370
     5
  0
POLYLINE
  5
38C
330
366
100
AcDbEntity
  8
Cut
 62
   179
420
  1842203
370
     5
100
AcDb2dPolyline
 66
     1
 10
0.0
 20
0.0
 30
0.0
  0
VERTEX
  5
38D
330
38C
100
AcDbEntity
  8
Cut
 62
   179
420
  1842203
370
     5
100
AcDbVertex
100
AcDb2dVertex
 10
728.0230061681003
 20
-31.60167431149197
 30
0.0
  0
VERTEX
  5
38E
330
38C
100
AcDbEntity
  8
Cut
 62
   179
420
  1842203
370
     5
100
AcDbVertex
100
AcDb2dVertex
 10
727.0677504384508
 20
-28.19013916972279
 30
0.0
  0
VERTEX
  5
38F
330
38C
100
AcDbEntity
  8
Cut
 62
   179
420
  1842203
370
     5
100
AcDbVertex
100
AcDb2dVertex
 10
724.5752653375172
 20
-30.72565126431396
 30
0.0
  0
VERTEX
  5
390
330
38C
100
AcDbEntity
  8
Cut
 62
   179
420
  1842203
370
     5
100
AcDbVertex
100
AcDb2dVertex
 10
728.0230061681003
 20
-31.60167431149197
 30
0.0
  0
SEQEND
  5
391
330
38C
100
AcDbEntity
  8
Cut
 62
   179
420
  1842203
370
     5
  0
POLYLINE
  5
392
330
366
100
AcDbEntity
  8
Cut
 62
   179
420
  1842203
370
     5
100
AcDb2dPolyline
 66
     1
 10
0.0
 20
0.0
 30
0.0
  0
VERTEX
  5
393
330
392
100
AcDbEntity
  8
Cut
 62
   179
420
  1842203
370
     5
100
AcDbVertex
100
AcDb2dVertex
 10
708.0021662195186
 20
-38.09202679203653
 30
0.0
  0
VERTEX
  5
394
330
392
100
AcDbEntity
  8
Cut
 62
   179
420
  1842203
370
     5
100
AcDbVertex
100
AcDb2dVertex
 10
707.1614267299449
 20
-35.19032827815177
 30
0.0
  0
VERTEX
  5
395
330
392
100
AcDbEntity
  8
Cut
 62
   179
420
  1842203
370
     5
100
AcDbVertex
100
AcDb2dVertex
 10
701.8747889065916
 20
-33.84709494432153
 30
0.0
  0
VERTEX
  5
396
330
392
100
AcDbEntity
  8
Cut
 62
   179
420
  1842203
370
     5
100
AcDbVertex
100
AcDb2dVertex
 10
699.6788403962859
 20
-36.09788799935205
 30
0.0
  0
VERTEX
  5
397
330
392
100
AcDbEntity
  8
Cut
 62
   179
420
  1842203
370
     5
100
AcDbVertex
100
AcDb2dVertex
 10
700.6407072293862
 20
-39.46756886140637
 30
0.0
  0
VERTEX
  5
398
330
392
100
AcDbEntity
  8
Cut
 62
   179
420
  1842203
370
     5
100
AcDbVertex
100
AcDb2dVertex
 10
698.1576751281407
 20
-40.1686452021562
 30
0.0
  0
VERTEX
  5
399
330
392
100
AcDbEntity
  8
Cut
 62
   179
420
  1842203
370
     5
100
AcDbVertex
100
AcDb2dVertex
 10
697.6113361829375
 20
-38.21347372293755
 30
0.0
  0
VERTEX
  5
39A
330
392
100
AcDbEntity
  8
Cut
 62
   179
420
  1842203
370
     5
100
AcDbVertex
100
AcDb2dVertex
 10
696.3300092595316
 20
-39.53529381017339
 30
0.0
  0
VERTEX
  5
39B
330
392
100
AcDbEntity
  8
Cut
 62
   179
420
  1842203
370
     5
100
AcDbVertex
100
AcDb2dVertex
 10
698.0946838274658
 20
-45.82533079529343
 30
0.0
  0
VERTEX
  5
39C
330
392
100
AcDbEntity
  8
Cut
 62
   179
420
  1842203
370
     5
100
AcDbVertex
100
AcDb2dVertex
 10
706.2439819451793
 20
-45.83756785817679
 30
0.0
  0
VERTEX
  5
39D
330
392
100
AcDbEntity
  8
Cut
 62
   179
420
  1842203
370
     5
100
AcDbVertex
100
AcDb2dVertex
 10
709.3024853878327
 20
-42.70955932854496
 30
0.0
  0
VERTEX
  5
39E
330
392
100
AcDbEntity
  8
Cut
 62
   179
420
  1842203
370
     5
100
AcDbVertex
100
AcDb2dVertex
 10
708.7785548767428
 20
-40.95316163543792
 30
0.0
  0
VERTEX
  5
39F
330
392
100
AcDbEntity
  8
Cut
 62
   179
420
  1842203
370
     5
100
AcDbVertex
100
AcDb2dVertex
 10
707.4972152259346
 20
-42.27502507074813
 30
0.0
  0
VERTEX
  5
3A0
330
392
100
AcDbEntity
  8
Cut
 62
   179
420
  1842203
370
     5
100
AcDbVertex
100
AcDb2dVertex
 10
705.6719391511886
 20
-40.47930275712525
 30
0.0
  0
VERTEX
  5
3A1
330
392
100
AcDbEntity
  8
Cut
 62
   179
420
  1842203
370
     5
100
AcDbVertex
100
AcDb2dVertex
 10
708.0021662195186
 20
-38.09202679203653
 30
0.0
  0
SEQEND
  5
3A2
330
392
100
AcDbEntity
  8
Cut
 62
   179
420
  1842203
370
     5
  0
POLYLINE
  5
3A3
330
366
100
AcDbEntity
  8
Cut
 62
   179
420
  1842203
370
     5
100
AcDb2dPolyline
 66
     1
 10
0.0
 20
0.0
 30
0.0
  0
VERTEX
  5
3A4
330
3A3
100
AcDbEntity
  8
Cut
 62
   179
420
  1842203
370
     5
100
AcDbVertex
100
AcDb2dVertex
 10
709.7625182159475
 20
-23.81313641850019
 30
0.0
  0
VERTEX
  5
3A5
330
3A3
100
AcDbEntity
  8
Cut
 62
   179
420
  1842203
370
     5
100
AcDbVertex
100
AcDb2dVertex
 10
704.8616174737281
 20
-22.5679168078504
 30
0.0
  0
VERTEX
  5
3A6
330
3A3
100
AcDbEntity
  8
Cut
 62
   179
420
  1842203
370
     5
100
AcDbVertex
100
AcDb2dVertex
 10
701.325775091073
 20
-26.17445412746815
 30
0.0
  0
VERTEX
  5
3A7
330
3A3
100
AcDbEntity
  8
Cut
 62
   179
420
  1842203
370
     5
100
AcDbVertex
100
AcDb2dVertex
 10
702.7053037617989
 20
-31.05462325521871
 30
0.0
  0
VERTEX
  5
3A8
330
3A3
100
AcDbEntity
  8
Cut
 62
   179
420
  1842203
370
     5
100
AcDbVertex
100
AcDb2dVertex
 10
707.6062096690134
 20
-32.29986131178364
 30
0.0
  0
VERTEX
  5
3A9
330
3A3
100
AcDbEntity
  8
Cut
 62
   179
420
  1842203
370
     5
100
AcDbVertex
100
AcDb2dVertex
 10
711.1476823299917
 20
-28.67002523994474
 30
0.0
  0
VERTEX
  5
3AA
330
3A3
100
AcDbEntity
  8
Cut
 62
   179
420
  1842203
370
     5
100
AcDbVertex
100
AcDb2dVertex
 10
709.7625182159475
 20
-23.81313641850019
 30
0.0
  0
SEQEND
  5
3AB
330
3A3
100
AcDbEntity
  8
Cut
 62
   179
420
  1842203
370
     5
  0
POLYLINE
  5
3AC
330
366
100
AcDbEntity
  8
Cut
 62
   179
420
  1842203
370
     5
100
AcDb2dPolyline
 66
     1
 10
0.0
 20
0.0
 30
0.0
  0
VERTEX
  5
3AD
330
3AC
100
AcDbEntity
  8
Cut
 62
   179
420
  1842203
370
     5
100
AcDbVertex
100
AcDb2dVertex
 10
694.2584055919928
 20
-41.67341147699651
 30
0.0
  0
VERTEX
  5
3AE
330
3AC
100
AcDbEntity
  8
Cut
 62
   179
420
  1842203
370
     5
100
AcDbVertex
100
AcDb2dVertex
 10
690.6532619518537
 20
-45.35835380175269
 30
0.0
  0
VERTEX
  5
3AF
330
3AC
100
AcDbEntity
  8
Cut
 62
   179
420
  1842203
370
     5
100
AcDbVertex
100
AcDb2dVertex
 10
688.8003246330644
 20
-43.5797659428077
 30
0.0
  0
VERTEX
  5
3B0
330
3AC
100
AcDbEntity
  8
Cut
 62
   179
420
  1842203
370
     5
100
AcDbVertex
100
AcDb2dVertex
 10
692.4742426975686
 20
-39.81403982669773
 30
0.0
  0
VERTEX
  5
3B1
330
3AC
100
AcDbEntity
  8
Cut
 62
   179
420
  1842203
370
     5
100
AcDbVertex
100
AcDb2dVertex
 10
686.9137351268859
 20
-38.40120520406257
 30
0.0
  0
VERTEX
  5
3B2
330
3AC
100
AcDbEntity
  8
Cut
 62
   179
420
  1842203
370
     5
100
AcDbVertex
100
AcDb2dVertex
 10
687.543644900172
 20
-35.92207022002235
 30
0.0
  0
VERTEX
  5
3B3
330
3AC
100
AcDbEntity
  8
Cut
 62
   179
420
  1842203
370
     5
100
AcDbVertex
100
AcDb2dVertex
 10
694.5395431810543
 20
-37.69958836018682
 30
0.0
  0
VERTEX
  5
3B4
330
3AC
100
AcDbEntity
  8
Cut
 62
   179
420
  1842203
370
     5
100
AcDbVertex
100
AcDb2dVertex
 10
695.8224007522514
 20
-36.37815525824497
 30
0.0
  0
VERTEX
  5
3B5
330
3AC
100
AcDbEntity
  8
Cut
 62
   179
420
  1842203
370
     5
100
AcDbVertex
100
AcDb2dVertex
 10
694.0214248301894
 20
-35.92057699622244
 30
0.0
  0
VERTEX
  5
3B6
330
3AC
100
AcDbEntity
  8
Cut
 62
   179
420
  1842203
370
     5
100
AcDbVertex
100
AcDb2dVertex
 10
694.6516015087299
 20
-33.44035277685984
 30
0.0
  0
VERTEX
  5
3B7
330
3AC
100
AcDbEntity
  8
Cut
 62
   179
420
  1842203
370
     5
100
AcDbVertex
100
AcDb2dVertex
 10
697.8882451999034
 20
-34.26271600719487
 30
0.0
  0
VERTEX
  5
3B8
330
3AC
100
AcDbEntity
  8
Cut
 62
   179
420
  1842203
370
     5
100
AcDbVertex
100
AcDb2dVertex
 10
699.9829283029094
 20
-32.13102603872503
 30
0.0
  0
VERTEX
  5
3B9
330
3AC
100
AcDbEntity
  8
Cut
 62
   179
420
  1842203
370
     5
100
AcDbVertex
100
AcDb2dVertex
 10
698.4834417318098
 20
-26.85722225388108
 30
0.0
  0
VERTEX
  5
3BA
330
3AC
100
AcDbEntity
  8
Cut
 62
   179
420
  1842203
370
     5
100
AcDbVertex
100
AcDb2dVertex
 10
695.4752842094906
 20
-26.09289963153284
 30
0.0
  0
VERTEX
  5
3BB
330
3AC
100
AcDbEntity
  8
Cut
 62
   179
420
  1842203
370
     5
100
AcDbVertex
100
AcDb2dVertex
 10
693.0217594847609
 20
-28.5942287055877
 30
0.0
  0
VERTEX
  5
3BC
330
3AC
100
AcDbEntity
  8
Cut
 62
   179
420
  1842203
370
     5
100
AcDbVertex
100
AcDb2dVertex
 10
691.1689507303633
 20
-26.81508765164858
 30
0.0
  0
VERTEX
  5
3BD
330
3AC
100
AcDbEntity
  8
Cut
 62
   179
420
  1842203
370
     5
100
AcDbVertex
100
AcDb2dVertex
 10
692.6042159537066
 20
-25.36341399102483
 30
0.0
  0
VERTEX
  5
3BE
330
3AC
100
AcDbEntity
  8
Cut
 62
   179
420
  1842203
370
     5
100
AcDbVertex
100
AcDb2dVertex
 10
690.7812902321492
 20
-24.9002454689031
 30
0.0
  0
VERTEX
  5
3BF
330
3AC
100
AcDbEntity
  8
Cut
 62
   179
420
  1842203
370
     5
100
AcDbVertex
100
AcDb2dVertex
 10
685.8538448291467
 20
-29.97012117724342
 30
0.0
  0
VERTEX
  5
3C0
330
3AC
100
AcDbEntity
  8
Cut
 62
   179
420
  1842203
370
     5
100
AcDbVertex
100
AcDb2dVertex
 10
684.0066661767264
 20
-28.16883516536004
 30
0.0
  0
VERTEX
  5
3C1
330
3AC
100
AcDbEntity
  8
Cut
 62
   179
420
  1842203
370
     5
100
AcDbVertex
100
AcDb2dVertex
 10
687.9102219763652
 20
-24.17075982839573
 30
0.0
  0
VERTEX
  5
3C2
330
3AC
100
AcDbEntity
  8
Cut
 62
   179
420
  1842203
370
     5
100
AcDbVertex
100
AcDb2dVertex
 10
682.8972378976902
 20
-22.89704902067651
 30
0.0
  0
VERTEX
  5
3C3
330
3AC
100
AcDbEntity
  8
Cut
 62
   179
420
  1842203
370
     5
100
AcDbVertex
100
AcDb2dVertex
 10
683.5272808468425
 20
-20.41735955039193
 30
0.0
  0
VERTEX
  5
3C4
330
3AC
100
AcDbEntity
  8
Cut
 62
   179
420
  1842203
370
     5
100
AcDbVertex
100
AcDb2dVertex
 10
688.6085425531141
 20
-21.70841442149645
 30
0.0
  0
VERTEX
  5
3C5
330
3AC
100
AcDbEntity
  8
Cut
 62
   179
420
  1842203
370
     5
100
AcDbVertex
100
AcDb2dVertex
 10
687.2845761158624
 20
-16.97007416477575
 30
0.0
  0
VERTEX
  5
3C6
330
3AC
100
AcDbEntity
  8
Cut
 62
   179
420
  1842203
370
     5
100
AcDbVertex
100
AcDb2dVertex
 10
640.0853278617986
 20
-45.73822570664257
 30
0.0
  0
VERTEX
  5
3C7
330
3AC
100
AcDbEntity
  8
Cut
 62
   179
420
  1842203
370
     5
100
AcDbVertex
100
AcDb2dVertex
 10
695.4327737889349
 20
-45.82132849472189
 30
0.0
  0
VERTEX
  5
3C8
330
3AC
100
AcDbEntity
  8
Cut
 62
   179
420
  1842203
370
     5
100
AcDbVertex
100
AcDb2dVertex
 10
694.2584055919928
 20
-41.67341147699651
 30
0.0
  0
SEQEND
  5
3C9
330
3AC
100
AcDbEntity
  8
Cut
 62
   179
420
  1842203
370
     5
  0
POLYLINE
  5
3CA
330
366
100
AcDbEntity
  8
Cut
 62
   179
420
  1842203
370
     5
100
AcDb2dPolyline
 66
     1
 10
0.0
 20
0.0
 30
0.0
  0
VERTEX
  5
3CB
330
3CA
100
AcDbEntity
  8
Cut
 62
   179
420
  1842203
370
     5
100
AcDbVertex
100
AcDb2dVertex
 10
706.4593658823903
 20
-5.282941197095814
 30
0.0
  0
VERTEX
  5
3CC
330
3CA
100
AcDbEntity
  8
Cut
 62
   179
420
  1842203
370
     5
100
AcDbVertex
100
AcDb2dVertex
 10
708.2293015177365
 20
-7.025949059561814
 30
0.0
  0
VERTEX
  5
3CD
330
3CA
100
AcDbEntity
  8
Cut
 62
   179
420
  1842203
370
     5
100
AcDbVertex
100
AcDb2dVertex
 10
703.2102604907194
 20
-12.16911394524161
 30
0.0
  0
VERTEX
  5
3CE
330
3CA
100
AcDbEntity
  8
Cut
 62
   179
420
  1842203
370
     5
100
AcDbVertex
100
AcDb2dVertex
 10
703.706748157825
 20
-13.9426446158145
 30
0.0
  0
VERTEX
  5
3CF
330
3CA
100
AcDbEntity
  8
Cut
 62
   179
420
  1842203
370
     5
100
AcDbVertex
100
AcDb2dVertex
 10
705.0115549750008
 20
-12.62678203680778
 30
0.0
  0
VERTEX
  5
3D0
330
3CA
100
AcDbEntity
  8
Cut
 62
   179
420
  1842203
370
     5
100
AcDbVertex
100
AcDb2dVertex
 10
706.8351840114522
 20
-14.4226074748904
 30
0.0
  0
VERTEX
  5
3D1
330
3CA
100
AcDbEntity
  8
Cut
 62
   179
420
  1842203
370
     5
100
AcDbVertex
100
AcDb2dVertex
 10
704.5125015421688
 20
-16.78656585941714
 30
0.0
  0
VERTEX
  5
3D2
330
3CA
100
AcDbEntity
  8
Cut
 62
   179
420
  1842203
370
     5
100
AcDbVertex
100
AcDb2dVertex
 10
705.3337868120005
 20
-19.66029288467688
 30
0.0
  0
VERTEX
  5
3D3
330
3CA
100
AcDbEntity
  8
Cut
 62
   179
420
  1842203
370
     5
100
AcDbVertex
100
AcDb2dVertex
 10
710.6670151344088
 20
-21.01536560916142
 30
0.0
  0
VERTEX
  5
3D4
330
3CA
100
AcDbEntity
  8
Cut
 62
   179
420
  1842203
370
     5
100
AcDbVertex
100
AcDb2dVertex
 10
712.8299471435289
 20
-18.8038744688783
 30
0.0
  0
VERTEX
  5
3D5
330
3CA
100
AcDbEntity
  8
Cut
 62
   179
420
  1842203
370
     5
100
AcDbVertex
100
AcDb2dVertex
 10
711.8664159332537
 20
-15.43434137060928
 30
0.0
  0
VERTEX
  5
3D6
330
3CA
100
AcDbEntity
  8
Cut
 62
   179
420
  1842203
370
     5
100
AcDbVertex
100
AcDb2dVertex
 10
714.3260896962332
 20
-14.726835857793
 30
0.0
  0
VERTEX
  5
3D7
330
3CA
100
AcDbEntity
  8
Cut
 62
   179
420
  1842203
370
     5
100
AcDbVertex
100
AcDb2dVertex
 10
714.8724799212185
 20
-16.68201287043605
 30
0.0
  0
VERTEX
  5
3D8
330
3CA
100
AcDbEntity
  8
Cut
 62
   179
420
  1842203
370
     5
100
AcDbVertex
100
AcDb2dVertex
 10
716.1828823459513
 20
-15.34393542357039
 30
0.0
  0
VERTEX
  5
3D9
330
3CA
100
AcDbEntity
  8
Cut
 62
   179
420
  1842203
370
     5
100
AcDbVertex
100
AcDb2dVertex
 10
714.2672518576151
 20
-8.560073706401772
 30
0.0
  0
VERTEX
  5
3DA
330
3CA
100
AcDbEntity
  8
Cut
 62
   179
420
  1842203
370
     5
100
AcDbVertex
100
AcDb2dVertex
 10
716.728463830789
 20
-7.852893384887746
 30
0.0
  0
VERTEX
  5
3DB
330
3CA
100
AcDbEntity
  8
Cut
 62
   179
420
  1842203
370
     5
100
AcDbVertex
100
AcDb2dVertex
 10
718.2483211703054
 20
-13.22894791673186
 30
0.0
  0
VERTEX
  5
3DC
330
3CA
100
AcDbEntity
  8
Cut
 62
   179
420
  1842203
370
     5
100
AcDbVertex
100
AcDb2dVertex
 10
721.848103345623
 20
-9.549047646125873
 30
0.0
  0
VERTEX
  5
3DD
330
3CA
100
AcDbEntity
  8
Cut
 62
   179
420
  1842203
370
     5
100
AcDbVertex
100
AcDb2dVertex
 10
718.5842543993664
 20
2.107239808630187
 30
0.0
  0
VERTEX
  5
3DE
330
3CA
100
AcDbEntity
  8
Cut
 62
   179
420
  1842203
370
     5
100
AcDbVertex
100
AcDb2dVertex
 10
706.4593658823903
 20
-5.282941197095814
 30
0.0
  0
SEQEND
  5
3DF
330
3CA
100
AcDbEntity
  8
Cut
 62
   179
420
  1842203
370
     5
  0
POLYLINE
  5
3E0
330
366
100
AcDbEntity
  8
Cut
 62
   179
420
  1842203
370
     5
100
AcDb2dPolyline
 66
     1
 10
0.0
 20
0.0
 30
0.0
  0
VERTEX
  5
3E1
330
3E0
100
AcDbEntity
  8
Cut
 62
   179
420
  1842203
370
     5
100
AcDbVertex
100
AcDb2dVertex
 10
706.1988948522287
 20
-5.441689812206969
 30
0.0
  0
VERTEX
  5
3E2
330
3E0
100
AcDbEntity
  8
Cut
 62
   179
420
  1842203
370
     5
100
AcDbVertex
100
AcDb2dVertex
 10
702.0237452057474
 20
-7.986464946193908
 30
0.0
  0
VERTEX
  5
3E3
330
3E0
100
AcDbEntity
  8
Cut
 62
   179
420
  1842203
370
     5
100
AcDbVertex
100
AcDb2dVertex
 10
702.4050372361022
 20
-9.32420879084822
 30
0.0
  0
VERTEX
  5
3E4
330
3E0
100
AcDbEntity
  8
Cut
 62
   179
420
  1842203
370
     5
100
AcDbVertex
100
AcDb2dVertex
 10
706.1988948522287
 20
-5.441689812206969
 30
0.0
  0
SEQEND
  5
3E5
330
3E0
100
AcDbEntity
  8
Cut
 62
   179
420
  1842203
370
     5
  0
POLYLINE
  5
3E6
330
366
100
AcDbEntity
  8
Cut
 62
   179
420
  1842203
370
     5
100
AcDb2dPolyline
 66
     1
 10
0.0
 20
0.0
 30
0.0
  0
VERTEX
  5
3E7
330
3E6
100
AcDbEntity
  8
Cut
 62
   179
420
  1842203
370
     5
100
AcDbVertex
100
AcDb2dVertex
 10
723.8768163727174
 20
-33.18739607193045
 30
0.0
  0
VERTEX
  5
3E8
330
3E6
100
AcDbEntity
  8
Cut
 62
   179
420
  1842203
370
     5
100
AcDbVertex
100
AcDb2dVertex
 10
725.436148792015
 20
-38.69528262006079
 30
0.0
  0
VERTEX
  5
3E9
330
3E6
100
AcDbEntity
  8
Cut
 62
   179
420
  1842203
370
     5
100
AcDbVertex
100
AcDb2dVertex
 10
722.9765965845355
 20
-39.40231646903847
 30
0.0
  0
VERTEX
  5
3EA
330
3E6
100
AcDbEntity
  8
Cut
 62
   179
420
  1842203
370
     5
100
AcDbVertex
100
AcDb2dVertex
 10
721.0057527284123
 20
-32.45790914017414
 30
0.0
  0
VERTEX
  5
3EB
330
3E6
100
AcDbEntity
  8
Cut
 62
   179
420
  1842203
370
     5
100
AcDbVertex
100
AcDb2dVertex
 10
719.2278868581136
 20
-32.00619302341141
 30
0.0
  0
VERTEX
  5
3EC
330
3E6
100
AcDbEntity
  8
Cut
 62
   179
420
  1842203
370
     5
100
AcDbVertex
100
AcDb2dVertex
 10
719.7228392659501
 20
-33.77933799993988
 30
0.0
  0
VERTEX
  5
3ED
330
3E6
100
AcDbEntity
  8
Cut
 62
   179
420
  1842203
370
     5
100
AcDbVertex
100
AcDb2dVertex
 10
717.2631481640914
 20
-34.48688815208076
 30
0.0
  0
VERTEX
  5
3EE
330
3E6
100
AcDbEntity
  8
Cut
 62
   179
420
  1842203
370
     5
100
AcDbVertex
100
AcDb2dVertex
 10
716.3568186023301
 20
-31.27670738290404
 30
0.0
  0
VERTEX
  5
3EF
330
3E6
100
AcDbEntity
  8
Cut
 62
   179
420
  1842203
370
     5
100
AcDbVertex
100
AcDb2dVertex
 10
713.4172054365224
 20
-30.52979338289339
 30
0.0
  0
VERTEX
  5
3F0
330
3E6
100
AcDbEntity
  8
Cut
 62
   179
420
  1842203
370
     5
100
AcDbVertex
100
AcDb2dVertex
 10
709.6108626354771
 20
-34.43247793264835
 30
0.0
  0
VERTEX
  5
3F1
330
3E6
100
AcDbEntity
  8
Cut
 62
   179
420
  1842203
370
     5
100
AcDbVertex
100
AcDb2dVertex
 10
710.4678688278001
 20
-37.45896042801984
 30
0.0
  0
VERTEX
  5
3F2
330
3E6
100
AcDbEntity
  8
Cut
 62
   179
420
  1842203
370
     5
100
AcDbVertex
100
AcDb2dVertex
 10
713.8630267966123
 20
-38.32159946272424
 30
0.0
  0
VERTEX
  5
3F3
330
3E6
100
AcDbEntity
  8
Cut
 62
   179
420
  1842203
370
     5
100
AcDbVertex
100
AcDb2dVertex
 10
713.2328501180693
 20
-40.80182368208781
 30
0.0
  0
VERTEX
  5
3F4
330
3E6
100
AcDbEntity
  8
Cut
 62
   179
420
  1842203
370
     5
100
AcDbVertex
100
AcDb2dVertex
 10
711.2730926359353
 20
-40.30388531957795
 30
0.0
  0
VERTEX
  5
3F5
330
3E6
100
AcDbEntity
  8
Cut
 62
   179
420
  1842203
370
     5
100
AcDbVertex
100
AcDb2dVertex
 10
711.7857836100472
 20
-42.1056413179471
 30
0.0
  0
VERTEX
  5
3F6
330
3E6
100
AcDbEntity
  8
Cut
 62
   179
420
  1842203
370
     5
100
AcDbVertex
100
AcDb2dVertex
 10
718.6445880129155
 20
-43.84832376751964
 30
0.0
  0
VERTEX
  5
3F7
330
3E6
100
AcDbEntity
  8
Cut
 62
   179
420
  1842203
370
     5
100
AcDbVertex
100
AcDb2dVertex
 10
718.1346293102922
 20
-45.85542858737767
 30
0.0
  0
VERTEX
  5
3F8
330
3E6
100
AcDbEntity
  8
Cut
 62
   179
420
  1842203
370
     5
100
AcDbVertex
100
AcDb2dVertex
 10
732.020000509526
 20
-45.87626721263771
 30
0.0
  0
VERTEX
  5
3F9
330
3E6
100
AcDbEntity
  8
Cut
 62
   179
420
  1842203
370
     5
100
AcDbVertex
100
AcDb2dVertex
 10
728.8186015331336
 20
-34.44300931969894
 30
0.0
  0
VERTEX
  5
3FA
330
3E6
100
AcDbEntity
  8
Cut
 62
   179
420
  1842203
370
     5
100
AcDbVertex
100
AcDb2dVertex
 10
723.8768163727174
 20
-33.18739607193045
 30
0.0
  0
SEQEND
  5
3FB
330
3E6
100
AcDbEntity
  8
Cut
 62
   179
420
  1842203
370
     5
  0
POLYLINE
  5
3FC
330
366
100
AcDbEntity
  8
Cut
 62
   179
420
  1842203
370
     5
100
AcDb2dPolyline
 66
     1
 10
0.0
 20
0.0
 30
0.0
  0
VERTEX
  5
3FD
330
3FC
100
AcDbEntity
  8
Cut
 62
   179
420
  1842203
370
     5
100
AcDbVertex
100
AcDb2dVertex
 10
720.033019359454
 20
-15.08735410215376
 30
0.0
  0
VERTEX
  5
3FE
330
3FC
100
AcDbEntity
  8
Cut
 62
   179
420
  1842203
370
     5
100
AcDbVertex
100
AcDb2dVertex
 10
723.6566732735947
 20
-16.0080508995134
 30
0.0
  0
VERTEX
  5
3FF
330
3FC
100
AcDbEntity
  8
Cut
 62
   179
420
  1842203
370
     5
100
AcDbVertex
100
AcDb2dVertex
 10
722.6482852273429
 20
-12.40676262711419
 30
0.0
  0
VERTEX
  5
400
330
3FC
100
AcDbEntity
  8
Cut
 62
   179
420
  1842203
370
     5
100
AcDbVertex
100
AcDb2dVertex
 10
720.033019359454
 20
-15.08735410215376
 30
0.0
  0
SEQEND
  5
401
330
3FC
100
AcDbEntity
  8
Cut
 62
   179
420
  1842203
370
     5
  0
ENDBLK
  5
369
330
366
100
AcDbEntity
  8
0
100
AcDbBlockEnd
  0
ENDSEC
  0
SECTION
  2
ENTITIES
  0
INSERT
  5
42
330
1F
100
AcDbEntity
  8
Cut
100
AcDbBlockReference
  2
block 2
 10
0.0
 20
0.0
 30
0.0
  0
INSERT
  5
DE
330
1F
100
AcDbEntity
  8
Cut
100
AcDbBlockReference
  2
block 3
 10
0.0
 20
0.0
 30
0.0
  0
INSERT
  5
17A
330
1F
100
AcDbEntity
  8
Cut
100
AcDbBlockReference
  2
block 4
 10
0.0
 20
0.0
 30
0.0
  0
POLYLINE
  5
215
330
1F
100
AcDbEntity
  8
Cut
 62
   179
420
  1842203
370
     5
100
AcDb2dPolyline
 66
     1
 10
0.0
 20
0.0
 30
0.0
  0
VERTEX
  5
216
330
215
100
AcDbEntity
  8
Cut
 62
   179
420
  1842203
370
     5
100
AcDbVertex
100
AcDb2dVertex
 10
597.250703936622
 20
72.89759753557297
 30
0.0
  0
VERTEX
  5
217
330
215
100
AcDbEntity
  8
Cut
 62
   179
420
  1842203
370
     5
100
AcDbVertex
100
AcDb2dVertex
 10
592.677075740196
 20
79.81466302036873
 30
0.0
  0
VERTEX
  5
218
330
215
100
AcDbEntity
  8
Cut
 62
   179
420
  1842203
370
     5
100
AcDbVertex
100
AcDb2dVertex
 10
592.675795038093
 20
79.81387771383125
 30
0.0
  0
VERTEX
  5
219
330
215
100
AcDbEntity
  8
Cut
 62
   179
420
  1842203
370
     5
100
AcDbVertex
100
AcDb2dVertex
 10
592.677029626852
 20
79.81470280130615
 30
0.0
  0
VERTEX
  5
21A
330
215
100
AcDbEntity
  8
Cut
 62
   179
420
  1842203
370
     5
100
AcDbVertex
100
AcDb2dVertex
 10
462.8172575454178
 20
79.78795954902202
 30
0.0
  0
VERTEX
  5
21B
330
215
100
AcDbEntity
  8
Cut
 62
   179
420
  1842203
370
     5
100
AcDbVertex
100
AcDb2dVertex
 10
462.8529238310142
 20
79.66145750969025
 30
0.0
  0
VERTEX
  5
21C
330
215
100
AcDbEntity
  8
Cut
 62
   179
420
  1842203
370
     5
100
AcDbVertex
100
AcDb2dVertex
 10
462.812727108564
 20
79.7867403489269
 30
0.0
  0
VERTEX
  5
21D
330
215
100
AcDbEntity
  8
Cut
 62
   179
420
  1842203
370
     5
100
AcDbVertex
100
AcDb2dVertex
 10
459.5102786535116
 20
75.84313064616354
 30
0.0
  0
VERTEX
  5
21E
330
215
100
AcDbEntity
  8
Cut
 62
   179
420
  1842203
370
     5
100
AcDbVertex
100
AcDb2dVertex
 10
477.3333741024775
 20
12.60246766166142
 30
0.0
  0
VERTEX
  5
21F
330
215
100
AcDbEntity
  8
Cut
 62
   179
420
  1842203
370
     5
100
AcDbVertex
100
AcDb2dVertex
 10
481.9056040887668
 20
12.04000984775465
 30
0.0
  0
VERTEX
  5
220
330
215
100
AcDbEntity
  8
Cut
 62
   179
420
  1842203
370
     5
100
AcDbVertex
100
AcDb2dVertex
 10
481.9055977563613
 20
12.0400957420353
 30
0.0
  0
VERTEX
  5
221
330
215
100
AcDbEntity
  8
Cut
 62
   179
420
  1842203
370
     5
100
AcDbVertex
100
AcDb2dVertex
 10
481.9056470359072
 20
12.04001301395771
 30
0.0
  0
VERTEX
  5
222
330
215
100
AcDbEntity
  8
Cut
 62
   179
420
  1842203
370
     5
100
AcDbVertex
100
AcDb2dVertex
 10
481.9056040887668
 20
12.04000984775465
 30
0.0
  0
VERTEX
  5
223
330
215
100
AcDbEntity
  8
Cut
 62
   179
420
  1842203
370
     5
100
AcDbVertex
100
AcDb2dVertex
 10
481.9084728180607
 20
12.03799754081527
 30
0.0
  0
VERTEX
  5
224
330
215
100
AcDbEntity
  8
Cut
 62
   179
420
  1842203
370
     5
100
AcDbVertex
100
AcDb2dVertex
 10
533.5381517747575
 20
-35.79789914864922
 30
0.0
  0
VERTEX
  5
225
330
215
100
AcDbEntity
  8
Cut
 62
   179
420
  1842203
370
     5
100
AcDbVertex
100
AcDb2dVertex
 10
535.5439272481944
 20
-40.53448261003374
 30
0.0
  0
VERTEX
  5
226
330
215
100
AcDbEntity
  8
Cut
 62
   179
420
  1842203
370
     5
100
AcDbVertex
100
AcDb2dVertex
 10
599.9594932405832
 20
-53.48354301493789
 30
0.0
  0
VERTEX
  5
227
330
215
100
AcDbEntity
  8
Cut
 62
   179
420
  1842203
370
     5
100
AcDbVertex
100
AcDb2dVertex
 10
602.5434458038843
 20
-49.66976457032081
 30
0.0
  0
VERTEX
  5
228
330
215
100
AcDbEntity
  8
Cut
 62
   179
420
  1842203
370
     5
100
AcDbVertex
100
AcDb2dVertex
 10
602.5433567434006
 20
-49.66972795558644
 30
0.0
  0
VERTEX
  5
229
330
215
100
AcDbEntity
  8
Cut
 62
   179
420
  1842203
370
     5
100
AcDbVertex
100
AcDb2dVertex
 10
602.5434442207833
 20
-49.66974309675057
 30
0.0
  0
VERTEX
  5
22A
330
215
100
AcDbEntity
  8
Cut
 62
   179
420
  1842203
370
     5
100
AcDbVertex
100
AcDb2dVertex
 10
602.5434458038843
 20
-49.66976457032081
 30
0.0
  0
VERTEX
  5
22B
330
215
100
AcDbEntity
  8
Cut
 62
   179
420
  1842203
370
     5
100
AcDbVertex
100
AcDb2dVertex
 10
606.2107205753059
 20
-47.73271776227325
 30
0.0
  0
VERTEX
  5
22C
330
215
100
AcDbEntity
  8
Cut
 62
   179
420
  1842203
370
     5
100
AcDbVertex
100
AcDb2dVertex
 10
597.250703936622
 20
72.89759753557297
 30
0.0
  0
SEQEND
  5
22D
330
215
100
AcDbEntity
  8
Cut
 62
   179
420
  1842203
370
     5
  0
INSERT
  5
22F
330
1F
100
AcDbEntity
  8
Cut
100
AcDbBlockReference
  2
block 5
 10
0.0
 20
0.0
 30
0.0
  0
INSERT
  5
2CB
330
1F
100
AcDbEntity
  8
Cut
100
AcDbBlockReference
  2
block 6
 10
0.0
 20
0.0
 30
0.0
  0
INSERT
  5
367
330
1F
100
AcDbEntity
  8
Cut
100
AcDbBlockReference
  2
block 7
 10
0.0
 20
0.0
 30
0.0
  0
POLYLINE
  5
402
330
1F
100
AcDbEntity
  8
Cut
 62
   179
420
  1842203
370
     5
100
AcDb2dPolyline
 66
     1
 10
0.0
 20
0.0
 30
0.0
  0
VERTEX
  5
403
330
402
100
AcDbEntity
  8
Cut
 62
   179
420
  1842203
370
     5
100
AcDbVertex
100
AcDb2dVertex
 10
607.9010168882735
 20
-46.62608233410377
 30
0.0
  0
VERTEX
  5
404
330
402
100
AcDbEntity
  8
Cut
 62
   179
420
  1842203
370
     5
100
AcDbVertex
100
AcDb2dVertex
 10
612.4667684439625
 20
-53.54834948669365
 30
0.0
  0
VERTEX
  5
405
330
402
100
AcDbEntity
  8
Cut
 62
   179
420
  1842203
370
     5
100
AcDbVertex
100
AcDb2dVertex
 10
612.4680500391481
 20
-53.54756563848493
 30
0.0
  0
VERTEX
  5
406
330
402
100
AcDbEntity
  8
Cut
 62
   179
420
  1842203
370
     5
100
AcDbVertex
100
AcDb2dVertex
 10
612.4668145119934
 20
-53.54838932009606
 30
0.0
  0
VERTEX
  5
407
330
402
100
AcDbEntity
  8
Cut
 62
   179
420
  1842203
370
     5
100
AcDbVertex
100
AcDb2dVertex
 10
742.3265329041606
 20
-53.66946512618518
 30
0.0
  0
VERTEX
  5
408
330
402
100
AcDbEntity
  8
Cut
 62
   179
420
  1842203
370
     5
100
AcDbVertex
100
AcDb2dVertex
 10
723.3147107481449
 20
14.09958525543491
 30
0.0
  0
VERTEX
  5
409
330
402
100
AcDbEntity
  8
Cut
 62
   179
420
  1842203
370
     5
100
AcDbVertex
100
AcDb2dVertex
 10
723.3146717817157
 20
14.10012213939238
 30
0.0
  0
VERTEX
  5
40A
330
402
100
AcDbEntity
  8
Cut
 62
   179
420
  1842203
370
     5
100
AcDbVertex
100
AcDb2dVertex
 10
723.3145413709088
 20
14.10013426280763
 30
0.0
  0
VERTEX
  5
40B
330
402
100
AcDbEntity
  8
Cut
 62
   179
420
  1842203
370
     5
100
AcDbVertex
100
AcDb2dVertex
 10
723.3145398122521
 20
14.10015573816596
 30
0.0
  0
VERTEX
  5
40C
330
402
100
AcDbEntity
  8
Cut
 62
   179
420
  1842203
370
     5
100
AcDbVertex
100
AcDb2dVertex
 10
723.3146717817157
 20
14.10012213939238
 30
0.0
  0
VERTEX
  5
40D
330
402
100
AcDbEntity
  8
Cut
 62
   179
420
  1842203
370
     5
100
AcDbVertex
100
AcDb2dVertex
 10
671.7372555746504
 20
61.99682009804476
 30
0.0
  0
VERTEX
  5
40E
330
402
100
AcDbEntity
  8
Cut
 62
   179
420
  1842203
370
     5
100
AcDbVertex
100
AcDb2dVertex
 10
669.7368730413195
 20
66.73568365979116
 30
0.0
  0
VERTEX
  5
40F
330
402
100
AcDbEntity
  8
Cut
 62
   179
420
  1842203
370
     5
100
AcDbVertex
100
AcDb2dVertex
 10
605.3360886630471
 20
79.75805974685758
 30
0.0
  0
VERTEX
  5
410
330
402
100
AcDbEntity
  8
Cut
 62
   179
420
  1842203
370
     5
100
AcDbVertex
100
AcDb2dVertex
 10
602.7477965596963
 20
75.9472250795246
 30
0.0
  0
VERTEX
  5
411
330
402
100
AcDbEntity
  8
Cut
 62
   179
420
  1842203
370
     5
100
AcDbVertex
100
AcDb2dVertex
 10
602.7478855784433
 20
75.94718836343644
 30
0.0
  0
VERTEX
  5
412
330
402
100
AcDbEntity
  8
Cut
 62
   179
420
  1842203
370
     5
100
AcDbVertex
100
AcDb2dVertex
 10
602.7477981183537
 20
75.94720360416626
 30
0.0
  0
VERTEX
  5
413
330
402
100
AcDbEntity
  8
Cut
 62
   179
420
  1842203
370
     5
100
AcDbVertex
100
AcDb2dVertex
 10
602.7477965596963
 20
75.9472250795246
 30
0.0
  0
VERTEX
  5
414
330
402
100
AcDbEntity
  8
Cut
 62
   179
420
  1842203
370
     5
100
AcDbVertex
100
AcDb2dVertex
 10
599.0783192288108
 20
74.01435397575449
 30
0.0
  0
VERTEX
  5
415
330
402
100
AcDbEntity
  8
Cut
 62
   179
420
  1842203
370
     5
100
AcDbVertex
100
AcDb2dVertex
 10
607.9010168882735
 20
-46.62608233410377
 30
0.0
  0
SEQEND
  5
416
330
402
100
AcDbEntity
  8
Cut
 62
   179
420
  1842203
370
     5
  0
POLYLINE
  5
418
330
1F
100
AcDbEntity
  8
Ritzen
 62
    12
420
 14877971
370
     5
100
AcDb2dPolyline
 66
     1
 10
0.0
 20
0.0
 30
0.0
  0
VERTEX
  5
419
330
418
100
AcDbEntity
  8
Ritzen
 62
    12
420
 14877971
370
     5
100
AcDbVertex
100
AcDb2dVertex
 10
592.675795038093
 20
79.81387771383157
 30
0.0
  0
VERTEX
  5
41A
330
418
100
AcDbEntity
  8
Ritzen
 62
    12
420
 14877971
370
     5
100
AcDbVertex
100
AcDb2dVertex
 10
533.5379409285944
 20
-35.7971290580768
 30
0.0
  0
SEQEND
  5
41B
330
418
100
AcDbEntity
  8
Ritzen
 62
    12
420
 14877971
370
     5
  0
POLYLINE
  5
41C
330
1F
100
AcDbEntity
  8
Ritzen
 62
    12
420
 14877971
370
     5
100
AcDb2dPolyline
 66
     1
 10
0.0
 20
0.0
 30
0.0
  0
VERTEX
  5
41D
330
41C
100
AcDbEntity
  8
Ritzen
 62
    12
420
 14877971
370
     5
100
AcDbVertex
100
AcDb2dVertex
 10
592.675795038093
 20
79.81387771383157
 30
0.0
  0
VERTEX
  5
41E
330
41C
100
AcDbEntity
  8
Ritzen
 62
    12
420
 14877971
370
     5
100
AcDbVertex
100
AcDb2dVertex
 10
602.5434605192054
 20
-49.66976720487525
 30
0.0
  0
SEQEND
  5
41F
330
41C
100
AcDbEntity
  8
Ritzen
 62
    12
420
 14877971
370
     5
  0
POLYLINE
  5
420
330
1F
100
AcDbEntity
  8
Ritzen
 62
    12
420
 14877971
370
     5
100
AcDb2dPolyline
 66
     1
 10
0.0
 20
0.0
 30
0.0
  0
VERTEX
  5
421
330
420
100
AcDbEntity
  8
Ritzen
 62
    12
420
 14877971
370
     5
100
AcDbVertex
100
AcDb2dVertex
 10
592.675795038093
 20
79.81387771383157
 30
0.0
  0
VERTEX
  5
422
330
420
100
AcDbEntity
  8
Ritzen
 62
    12
420
 14877971
370
     5
100
AcDbVertex
100
AcDb2dVertex
 10
481.906208718335
 20
12.0405941800534
 30
0.0
  0
SEQEND
  5
423
330
420
100
AcDbEntity
  8
Ritzen
 62
    12
420
 14877971
370
     5
  0
POLYLINE
  5
424
330
1F
100
AcDbEntity
  8
Ritzen
 62
    12
420
 14877971
370
     5
100
AcDb2dPolyline
 66
     1
 10
0.0
 20
0.0
 30
0.0
  0
VERTEX
  5
425
330
424
100
AcDbEntity
  8
Ritzen
 62
    12
420
 14877971
370
     5
100
AcDbVertex
100
AcDb2dVertex
 10
612.466463328633
 20
-53.54719763569769
 30
0.0
  0
VERTEX
  5
426
330
424
100
AcDbEntity
  8
Ritzen
 62
    12
420
 14877971
370
     5
100
AcDbVertex
100
AcDb2dVertex
 10
671.7358788335694
 20
61.99641777075312
 30
0.0
  0
SEQEND
  5
427
330
424
100
AcDbEntity
  8
Ritzen
 62
    12
420
 14877971
370
     5
  0
POLYLINE
  5
428
330
1F
100
AcDbEntity
  8
Ritzen
 62
    12
420
 14877971
370
     5
100
AcDb2dPolyline
 66
     1
 10
0.0
 20
0.0
 30
0.0
  0
VERTEX
  5
429
330
428
100
AcDbEntity
  8
Ritzen
 62
    12
420
 14877971
370
     5
100
AcDbVertex
100
AcDb2dVertex
 10
612.466463328633
 20
-53.54719763569769
 30
0.0
  0
VERTEX
  5
42A
330
428
100
AcDbEntity
  8
Ritzen
 62
    12
420
 14877971
370
     5
100
AcDbVertex
100
AcDb2dVertex
 10
602.7461951368697
 20
75.94759573361527
 30
0.0
  0
SEQEND
  5
42B
330
428
100
AcDbEntity
  8
Ritzen
 62
    12
420
 14877971
370
     5
  0
POLYLINE
  5
42C
330
1F
100
AcDbEntity
  8
Ritzen
 62
    12
420
 14877971
370
     5
100
AcDb2dPolyline
 66
     1
 10
0.0
 20
0.0
 30
0.0
  0
VERTEX
  5
42D
330
42C
100
AcDbEntity
  8
Ritzen
 62
    12
420
 14877971
370
     5
100
AcDbVertex
100
AcDb2dVertex
 10
612.466463328633
 20
-53.54719763569769
 30
0.0
  0
VERTEX
  5
42E
330
42C
100
AcDbEntity
  8
Ritzen
 62
    12
420
 14877971
370
     5
100
AcDbVertex
100
AcDb2dVertex
 10
723.3131240376298
 20
14.09995325822247
 30
0.0
  0
SEQEND
  5
42F
330
42C
100
AcDbEntity
  8
Ritzen
 62
    12
420
 14877971
370
     5
  0
ENDSEC
  0
SECTION
  2
OBJECTS
  0
DICTIONARY
  5
C
330
0
100
AcDbDictionary
281
     1
  3
ACAD_GROUP
350
D
  3
ACAD_LAYOUT
350
1A
  3
ACAD_MATERIAL
350
3B
  3
ACAD_MLEADERSTYLE
350
431
  3
ACAD_MLINESTYLE
350
17
  3
ACAD_PLOTSETTINGS
350
19
  3
ACAD_PLOTSTYLENAME
350
E
  3
ACAD_TABLESTYLE
350
430
  3
ACAD_VISUALSTYLE
350
2A
  0
SUN
  5
3F
330
29
100
AcDbSun
 90
        1
290
     0
 63
     7
421
 16777215
 40
1.0
291
     1
 91
  2455826
 92
 54000000
292
     0
 70
     2
 71
   256
280
     1
  0
DICTIONARY
  5
D
102
{ACAD_REACTORS
330
C
102
}
330
C
100
AcDbDictionary
281
     1
  0
DICTIONARY
  5
1A
102
{ACAD_REACTORS
330
C
102
}
330
C
100
AcDbDictionary
281
     1
  3
Layout1
350
1E
  3
Layout2
350
26
  3
Model
350
22
  0
DICTIONARY
  5
3B
102
{ACAD_REACTORS
330
C
102
}
330
C
100
AcDbDictionary
281
     1
  3
ByBlock
350
3D
  3
ByLayer
350
3C
  3
Global
350
3E
  0
DICTIONARY
  5
431
102
{ACAD_REACTORS
330
C
102
}
330
C
100
AcDbDictionary
281
     1
  0
DICTIONARY
  5
17
102
{ACAD_REACTORS
330
C
102
}
330
C
100
AcDbDictionary
281
     1
  3
Standard
350
18
  0
DICTIONARY
  5
19
102
{ACAD_REACTORS
330
C
102
}
330
C
100
AcDbDictionary
281
     1
  0
ACDBDICTIONARYWDFLT
  5
E
102
{ACAD_REACTORS
330
C
102
}
330
C
100
AcDbDictionary
281
     1
  3
Normal
350
F
100
AcDbDictionaryWithDefault
340
F
  0
DICTIONARY
  5
430
102
{ACAD_REACTORS
330
C
102
}
330
C
100
AcDbDictionary
281
     1
  0
DICTIONARY
  5
2A
102
{ACAD_REACTORS
330
C
102
}
330
C
100
AcDbDictionary
281
     1
  3
2dWireframe
350
2F
  3
3D Hidden
350
31
  3
3dWireframe
350
30
  3
Basic
350
32
  3
Brighten
350
36
  3
ColorChange
350
3A
  3
Conceptual
350
34
  3
Dim
350
35
  3
Facepattern
350
39
  3
Flat
350
2B
  3
FlatWithEdges
350
2C
  3
Gouraud
350
2D
  3
GouraudWithEdges
350
2E
  3
Linepattern
350
38
  3
Realistic
350
33
  3
Thicken
350
37
  0
LAYOUT
  5
1E
102
{ACAD_REACTORS
330
1A
102
}
330
1A
100
AcDbPlotSettings
  1

  2
none_device
  4

  6

 40
0.0
 41
0.0
 42
0.0
 43
0.0
 44
0.0
 45
0.0
 46
0.0
 47
0.0
 48
0.0
 49
0.0
140
0.0
141
0.0
142
1.0
143
1.0
 70
   688
 72
     0
 73
     0
 74
     5
  7

 75
    16
 76
     0
 77
     2
 78
   300
147
1.0
148
0.0
149
0.0
100
AcDbLayout
  1
Layout1
 70
     1
 71
     1
 10
0.0
 20
0.0
 11
12.0
 21
9.0
 12
0.0
 22
0.0
 32
0.0
 14
1.000000000000000E+20
 24
1.000000000000000E+20
 34
1.000000000000000E+20
 15
-1.000000000000000E+20
 25
-1.000000000000000E+20
 35
-1.000000000000000E+20
146
0.0
 13
0.0
 23
0.0
 33
0.0
 16
1.0
 26
0.0
 36
0.0
 17
0.0
 27
1.0
 37
0.0
 76
     0
330
1B
  0
LAYOUT
  5
26
102
{ACAD_REACTORS
330
1A
102
}
330
1A
100
AcDbPlotSettings
  1

  2
none_device
  4

  6

 40
0.0
 41
0.0
 42
0.0
 43
0.0
 44
0.0
 45
0.0
 46
0.0
 47
0.0
 48
0.0
 49
0.0
140
0.0
141
0.0
142
1.0
143
1.0
 70
   688
 72
     0
 73
     0
 74
     5
  7

 75
    16
 76
     0
 77
     2
 78
   300
147
1.0
148
0.0
149
0.0
100
AcDbLayout
  1
Layout2
 70
     1
 71
     2
 10
0.0
 20
0.0
 11
0.0
 21
0.0
 12
0.0
 22
0.0
 32
0.0
 14
0.0
 24
0.0
 34
0.0
 15
0.0
 25
0.0
 35
0.0
146
0.0
 13
0.0
 23
0.0
 33
0.0
 16
1.0
 26
0.0
 36
0.0
 17
0.0
 27
1.0
 37
0.0
 76
     0
330
23
  0
LAYOUT
  5
22
102
{ACAD_REACTORS
330
1A
102
}
330
1A
100
AcDbPlotSettings
  1

  2
none_device
  4

  6

 40
0.0
 41
0.0
 42
0.0
 43
0.0
 44
0.0
 45
0.0
 46
0.0
 47
0.0
 48
0.0
 49
0.0
140
0.0
141
0.0
142
1.0
143
1.0
 70
  1712
 72
     0
 73
     0
 74
     0
  7

 75
     0
 76
     0
 77
     2
 78
   300
147
1.0
148
0.0
149
0.0
100
AcDbLayout
  1
Model
 70
     1
 71
     0
 10
0.0
 20
0.0
 11
12.0
 21
9.0
 12
0.0
 22
0.0
 32
0.0
 14
1.000000000000000E+20
 24
1.000000000000000E+20
 34
1.000000000000000E+20
 15
-1.000000000000000E+20
 25
-1.000000000000000E+20
 35
-1.000000000000000E+20
146
0.0
 13
0.0
 23
0.0
 33
0.0
 16
1.0
 26
0.0
 36
0.0
 17
0.0
 27
1.0
 37
0.0
 76
     0
330
1F
331
29
  0
MATERIAL
  5
3D
102
{ACAD_REACTORS
330
3B
102
}
330
3B
100
AcDbMaterial
  1
ByBlock
 72
     1
 94
      127
  0
MATERIAL
  5
3C
102
{ACAD_REACTORS
330
3B
102
}
330
3B
100
AcDbMaterial
  1
ByLayer
 72
     1
 94
      127
  0
MATERIAL
  5
3E
102
{ACAD_REACTORS
330
3B
102
}
330
3B
100
AcDbMaterial
  1
Global
 72
     1
 94
      127
  0
MLINESTYLE
  5
18
102
{ACAD_REACTORS
330
17
102
}
330
17
100
AcDbMlineStyle
  2
Standard
 70
     0
  3

 62
   256
 51
90.0
 52
90.0
 71
     2
 49
0.5
 62
   256
  6
BYLAYER
 49
-0.5
 62
   256
  6
BYLAYER
  0
ACDBPLACEHOLDER
  5
F
102
{ACAD_REACTORS
330
E
102
}
330
E
  0
VISUALSTYLE
  5
2F
102
{ACAD_REACTORS
330
2A
102
}
330
2A
100
AcDbVisualStyle
  2
2dWireframe
 70
     4
177
     2
291
     0
 71
     0
176
     1
 72
     2
176
     1
 73
     0
176
     1
 90
        0
176
     1
 40
-0.6
176
     1
 41
-30.0
176
     1
 62
     5
 63
     7
421
 16777215
176
     1
 74
     1
176
     1
 91
        4
176
     1
 64
     7
176
     1
 65
   257
176
     1
 75
     1
176
     1
175
     1
176
     1
 42
1.0
176
     1
 92
        0
176
     1
 66
   257
176
     1
 43
1.0
176
     1
 76
     1
176
     1
 77
     6
176
     1
 78
     2
176
     1
 67
     7
176
     1
 79
     5
176
     1
170
     0
176
     1
171
     0
176
     1
290
     0
176
     1
 93
        1
176
     1
 44
0.0
176
     1
173
     0
176
     1
  0
VISUALSTYLE
  5
31
102
{ACAD_REACTORS
330
2A
102
}
330
2A
100
AcDbVisualStyle
  2
3D Hidden
 70
     6
177
     2
291
     0
 71
     1
176
     1
 72
     2
176
     1
 73
     2
176
     1
 90
        0
176
     1
 40
-0.6
176
     1
 41
-30.0
176
     1
 62
     5
 63
     7
421
 16777215
176
     1
 74
     2
176
     1
 91
        2
176
     1
 64
     7
176
     1
 65
   257
176
     1
 75
     2
176
     1
175
     1
176
     1
 42
40.0
176
     1
 92
        0
176
     1
 66
   257
176
     1
 43
1.0
176
     1
 76
     1
176
     1
 77
     6
176
     1
 78
     2
176
     1
 67
     7
176
     1
 79
     3
176
     1
170
     0
176
     1
171
     0
176
     1
290
     0
176
     1
 93
        1
176
     1
 44
0.0
176
     1
173
     0
176
     1
  0
VISUALSTYLE
  5
30
102
{ACAD_REACTORS
330
2A
102
}
330
2A
100
AcDbVisualStyle
  2
3dWireframe
 70
     5
177
     2
291
     0
 71
     0
176
     1
 72
     2
176
     1
 73
     0
176
     1
 90
        0
176
     1
 40
-0.6
176
     1
 41
-30.0
176
     1
 62
     5
 63
     7
421
 16777215
176
     1
 74
     1
176
     1
 91
        4
176
     1
 64
     7
176
     1
 65
   257
176
     1
 75
     1
176
     1
175
     1
176
     1
 42
1.0
176
     1
 92
        0
176
     1
 66
   257
176
     1
 43
1.0
176
     1
 76
     1
176
     1
 77
     6
176
     1
 78
     2
176
     1
 67
     7
176
     1
 79
     5
176
     1
170
     0
176
     1
171
     0
176
     1
290
     0
176
     1
 93
        1
176
     1
 44
0.0
176
     1
173
     0
176
     1
  0
VISUALSTYLE
  5
32
102
{ACAD_REACTORS
330
2A
102
}
330
2A
100
AcDbVisualStyle
  2
Basic
 70
     7
177
     2
291
     1
 71
     1
176
     1
 72
     0
176
     1
 73
     1
176
     1
 90
        0
176
     1
 40
-0.6
176
     1
 41
-30.0
176
     1
 62
     5
 63
     7
421
 16777215
176
     1
 74
     0
176
     1
 91
        4
176
     1
 64
     7
176
     1
 65
   257
176
     1
 75
     1
176
     1
175
     1
176
     1
 42
1.0
176
     1
 92
        8
176
     1
 66
     7
176
     1
 43
1.0
176
     1
 76
     1
176
     1
 77
     6
176
     1
 78
     2
176
     1
 67
     7
176
     1
 79
     5
176
     1
170
     0
176
     1
171
     0
176
     1
290
     0
176
     1
 93
        1
176
     1
 44
0.0
176
     1
173
     0
176
     1
  0
VISUALSTYLE
  5
36
102
{ACAD_REACTORS
330
2A
102
}
330
2A
100
AcDbVisualStyle
  2
Brighten
 70
    12
177
     2
291
     1
 71
     2
176
     1
 72
     2
176
     1
 73
     0
176
     1
 90
        0
176
     1
 40
-0.6
176
     1
 41
-30.0
176
     1
 62
     5
 63
     7
421
 16777215
176
     1
 74
     1
176
     1
 91
        4
176
     1
 64
     7
176
     1
 65
   257
176
     1
 75
     1
176
     1
175
     1
176
     1
 42
1.0
176
     1
 92
        8
176
     1
 66
     7
176
     1
 43
1.0
176
     1
 76
     1
176
     1
 77
     6
176
     1
 78
     2
176
     1
 67
     7
176
     1
 79
     5
176
     1
170
     0
176
     1
171
     0
176
     1
290
     0
176
     1
 93
        1
176
     1
 44
50.0
176
     1
173
     0
176
     1
  0
VISUALSTYLE
  5
3A
102
{ACAD_REACTORS
330
2A
102
}
330
2A
100
AcDbVisualStyle
  2
ColorChange
 70
    16
177
     2
291
     1
 71
     2
176
     1
 72
     2
176
     1
 73
     3
176
     1
 90
        0
176
     1
 40
-0.6
176
     1
 41
-30.0
176
     1
 62
     5
 63
     8
421
  8421504
176
     1
 74
     1
176
     1
 91
        4
176
     1
 64
     7
176
     1
 65
   257
176
     1
 75
     1
176
     1
175
     1
176
     1
 42
1.0
176
     1
 92
        8
176
     1
 66
     8
424
  8421504
176
     1
 43
1.0
176
     1
 76
     1
176
     1
 77
     6
176
     1
 78
     2
176
     1
 67
     7
176
     1
 79
     5
176
     1
170
     0
176
     1
171
     0
176
     1
290
     0
176
     1
 93
        1
176
     1
 44
0.0
176
     1
173
     0
176
     1
  0
VISUALSTYLE
  5
34
102
{ACAD_REACTORS
330
2A
102
}
330
2A
100
AcDbVisualStyle
  2
Conceptual
 70
     9
177
     2
291
     0
 71
     3
176
     1
 72
     2
176
     1
 73
     0
176
     1
 90
        0
176
     1
 40
-0.6
176
     1
 41
-30.0
176
     1
 62
     5
 63
     7
421
 16777215
176
     1
 74
     2
176
     1
 91
        2
176
     1
 64
     7
176
     1
 65
   257
176
     1
 75
     1
176
     1
175
     1
176
     1
 42
40.0
176
     1
 92
        8
176
     1
 66
     7
176
     1
 43
1.0
176
     1
 76
     1
176
     1
 77
     6
176
     1
 78
     2
176
     1
 67
     7
176
     1
 79
     3
176
     1
170
     0
176
     1
171
     0
176
     1
290
     0
176
     1
 93
        1
176
     1
 44
0.0
176
     1
173
     0
176
     1
  0
VISUALSTYLE
  5
35
102
{ACAD_REACTORS
330
2A
102
}
330
2A
100
AcDbVisualStyle
  2
Dim
 70
    11
177
     2
291
     1
 71
     2
176
     1
 72
     2
176
     1
 73
     0
176
     1
 90
        0
176
     1
 40
-0.6
176
     1
 41
-30.0
176
     1
 62
     5
 63
     7
421
 16777215
176
     1
 74
     1
176
     1
 91
        4
176
     1
 64
     7
176
     1
 65
   257
176
     1
 75
     1
176
     1
175
     1
176
     1
 42
1.0
176
     1
 92
        8
176
     1
 66
     7
176
     1
 43
1.0
176
     1
 76
     1
176
     1
 77
     6
176
     1
 78
     2
176
     1
 67
     7
176
     1
 79
     5
176
     1
170
     0
176
     1
171
     0
176
     1
290
     0
176
     1
 93
        1
176
     1
 44
-50.0
176
     1
173
     0
176
     1
  0
VISUALSTYLE
  5
39
102
{ACAD_REACTORS
330
2A
102
}
330
2A
100
AcDbVisualStyle
  2
Facepattern
 70
    15
177
     2
291
     1
 71
     2
176
     1
 72
     2
176
     1
 73
     0
176
     1
 90
        0
176
     1
 40
-0.6
176
     1
 41
-30.0
176
     1
 62
     5
 63
     7
421
 16777215
176
     1
 74
     1
176
     1
 91
        4
176
     1
 64
     7
176
     1
 65
   257
176
     1
 75
     1
176
     1
175
     1
176
     1
 42
1.0
176
     1
 92
        8
176
     1
 66
     7
176
     1
 43
1.0
176
     1
 76
     1
176
     1
 77
     6
176
     1
 78
     2
176
     1
 67
     7
176
     1
 79
     5
176
     1
170
     0
176
     1
171
     0
176
     1
290
     0
176
     1
 93
        1
176
     1
 44
0.0
176
     1
173
     0
176
     1
  0
VISUALSTYLE
  5
2B
102
{ACAD_REACTORS
330
2A
102
}
330
2A
100
AcDbVisualStyle
  2
Flat
 70
     0
177
     2
291
     1
 71
     2
176
     1
 72
     1
176
     1
 73
     1
176
     1
 90
        2
176
     1
 40
-0.6
176
     1
 41
30.0
176
     1
 62
     5
 63
     7
421
 16777215
176
     1
 74
     0
176
     1
 91
        4
176
     1
 64
     7
176
     1
 65
   257
176
     1
 75
     1
176
     1
175
     1
176
     1
 42
1.0
176
     1
 92
        8
176
     1
 66
     7
176
     1
 43
1.0
176
     1
 76
     1
176
     1
 77
     6
176
     1
 78
     2
176
     1
 67
     7
176
     1
 79
     5
176
     1
170
     0
176
     1
171
     0
176
     1
290
     0
176
     1
 93
       13
176
     1
 44
0.0
176
     1
173
     0
176
     1
  0
VISUALSTYLE
  5
2C
102
{ACAD_REACTORS
330
2A
102
}
330
2A
100
AcDbVisualStyle
  2
FlatWithEdges
 70
     1
177
     2
291
     1
 71
     2
176
     1
 72
     1
176
     1
 73
     1
176
     1
 90
        2
176
     1
 40
-0.6
176
     1
 41
30.0
176
     1
 62
     5
 63
     7
421
 16777215
176
     1
 74
     1
176
     1
 91
        4
176
     1
 64
     7
176
     1
 65
   257
176
     1
 75
     1
176
     1
175
     1
176
     1
 42
1.0
176
     1
 92
        0
176
     1
 66
   257
176
     1
 43
1.0
176
     1
 76
     1
176
     1
 77
     6
176
     1
 78
     2
176
     1
 67
     7
176
     1
 79
     5
176
     1
170
     0
176
     1
171
     0
176
     1
290
     0
176
     1
 93
       13
176
     1
 44
0.0
176
     1
173
     0
176
     1
  0
VISUALSTYLE
  5
2D
102
{ACAD_REACTORS
330
2A
102
}
330
2A
100
AcDbVisualStyle
  2
Gouraud
 70
     2
177
     2
291
     1
 71
     2
176
     1
 72
     2
176
     1
 73
     1
176
     1
 90
        2
176
     1
 40
-0.6
176
     1
 41
30.0
176
     1
 62
     5
 63
     7
421
 16777215
176
     1
 74
     0
176
     1
 91
        4
176
     1
 64
     7
176
     1
 65
   257
176
     1
 75
     1
176
     1
175
     1
176
     1
 42
1.0
176
     1
 92
        0
176
     1
 66
     7
176
     1
 43
1.0
176
     1
 76
     1
176
     1
 77
     6
176
     1
 78
     2
176
     1
 67
     7
176
     1
 79
     5
176
     1
170
     0
176
     1
171
     0
176
     1
290
     0
176
     1
 93
       13
176
     1
 44
0.0
176
     1
173
     0
176
     1
  0
VISUALSTYLE
  5
2E
102
{ACAD_REACTORS
330
2A
102
}
330
2A
100
AcDbVisualStyle
  2
GouraudWithEdges
 70
     3
177
     2
291
     1
 71
     2
176
     1
 72
     2
176
     1
 73
     1
176
     1
 90
        2
176
     1
 40
-0.6
176
     1
 41
30.0
176
     1
 62
     5
 63
     7
421
 16777215
176
     1
 74
     1
176
     1
 91
        4
176
     1
 64
     7
176
     1
 65
   257
176
     1
 75
     1
176
     1
175
     1
176
     1
 42
1.0
176
     1
 92
        0
176
     1
 66
   257
176
     1
 43
1.0
176
     1
 76
     1
176
     1
 77
     6
176
     1
 78
     2
176
     1
 67
     7
176
     1
 79
     5
176
     1
170
     0
176
     1
171
     0
176
     1
290
     0
176
     1
 93
       13
176
     1
 44
0.0
176
     1
173
     0
176
     1
  0
VISUALSTYLE
  5
38
102
{ACAD_REACTORS
330
2A
102
}
330
2A
100
AcDbVisualStyle
  2
Linepattern
 70
    14
177
     2
291
     1
 71
     2
176
     1
 72
     2
176
     1
 73
     0
176
     1
 90
        0
176
     1
 40
-0.6
176
     1
 41
-30.0
176
     1
 62
     5
 63
     7
421
 16777215
176
     1
 74
     1
176
     1
 91
        4
176
     1
 64
     7
176
     1
 65
   257
176
     1
 75
     7
176
     1
175
     7
176
     1
 42
1.0
176
     1
 92
        8
176
     1
 66
     7
176
     1
 43
1.0
176
     1
 76
     1
176
     1
 77
     6
176
     1
 78
     2
176
     1
 67
     7
176
     1
 79
     5
176
     1
170
     0
176
     1
171
     0
176
     1
290
     0
176
     1
 93
        1
176
     1
 44
0.0
176
     1
173
     0
176
     1
  0
VISUALSTYLE
  5
33
102
{ACAD_REACTORS
330
2A
102
}
330
2A
100
AcDbVisualStyle
  2
Realistic
 70
     8
177
     2
291
     0
 71
     2
176
     1
 72
     2
176
     1
 73
     0
176
     1
 90
        0
176
     1
 40
-0.6
176
     1
 41
-30.0
176
     1
 62
     5
 63
     7
421
 16777215
176
     1
 74
     1
176
     1
 91
        0
176
     1
 64
     7
176
     1
 65
   257
176
     1
 75
     1
176
     1
175
     1
176
     1
 42
1.0
176
     1
 92
        8
176
     1
 66
     8
424
  7895160
176
     1
 43
1.0
176
     1
 76
     1
176
     1
 77
     6
176
     1
 78
     2
176
     1
 67
     7
176
     1
 79
     5
176
     1
170
     0
176
     1
171
     0
176
     1
290
     0
176
     1
 93
       13
176
     1
 44
0.0
176
     1
173
     0
176
     1
  0
VISUALSTYLE
  5
37
102
{ACAD_REACTORS
330
2A
102
}
330
2A
100
AcDbVisualStyle
  2
Thicken
 70
    13
177
     2
291
     1
 71
     2
176
     1
 72
     2
176
     1
 73
     0
176
     1
 90
        0
176
     1
 40
-0.6
176
     1
 41
-30.0
176
     1
 62
     5
 63
     7
421
 16777215
176
     1
 74
     1
176
     1
 91
        4
176
     1
 64
     7
176
     1
 65
   257
176
     1
 75
     1
176
     1
175
     1
176
     1
 42
1.0
176
     1
 92
       12
176
     1
 66
     7
176
     1
 43
1.0
176
     1
 76
     1
176
     1
 77
     6
176
     1
 78
     2
176
     1
 67
     7
176
     1
 79
     5
176
     1
170
     0
176
     1
171
     0
176
     1
290
     0
176
     1
 93
        1
176
     1
 44
0.0
176
     1
173
     0
176
     1
  0
ENDSEC
  0
EOF
