  0
SECTION
  2
HEADER
  9
$ACADVER
  1
AC1024
  9
$ACADMAINTVER
 70
     6
  9
$DWGCODEPAGE
  3
UNDEFINED
  9
$INSBASE
 10
0.0
 20
0.0
 30
0.0
  9
$EXTMIN
 10
1.000000000000000E+20
 20
1.000000000000000E+20
 30
1.000000000000000E+20
  9
$EXTMAX
 10
-1.000000000000000E+20
 20
-1.000000000000000E+20
 30
-1.000000000000000E+20
  9
$LIMMIN
 10
0.0
 20
0.0
  9
$LIMMAX
 10
12.0
 20
9.0
  9
$ORTHOMODE
 70
     0
  9
$REGENMODE
 70
     1
  9
$FILLMODE
 70
     1
  9
$QTEXTMODE
 70
     0
  9
$MIRRTEXT
 70
     1
  9
$LTSCALE
 40
1.0
  9
$ATTMODE
 70
     1
  9
$TEXTSIZE
 40
0.2
  9
$TRACEWID
 40
0.05
  9
$TEXTSTYLE
  7
Standard
  9
$CLAYER
  8
0
  9
$CELTYPE
  6
ByLayer
  9
$CECOLOR
 62
   256
  9
$CELTSCALE
 40
1.0
  9
$DISPSILH
 70
     0
  9
$DIMSCALE
 40
1.0
  9
$DIMASZ
 40
0.18
  9
$DIMEXO
 40
0.0625
  9
$DIMDLI
 40
0.38
  9
$DIMRND
 40
0.0
  9
$DIMDLE
 40
0.0
  9
$DIMEXE
 40
0.18
  9
$DIMTP
 40
0.0
  9
$DIMTM
 40
0.0
  9
$DIMTXT
 40
0.18
  9
$DIMCEN
 40
0.09
  9
$DIMTSZ
 40
0.0
  9
$DIMTOL
 70
     0
  9
$DIMLIM
 70
     0
  9
$DIMTIH
 70
     1
  9
$DIMTOH
 70
     1
  9
$DIMSE1
 70
     0
  9
$DIMSE2
 70
     0
  9
$DIMTAD
 70
     0
  9
$DIMZIN
 70
     0
  9
$DIMBLK
  1

  9
$DIMASO
 70
     1
  9
$DIMSHO
 70
     1
  9
$DIMPOST
  1

  9
$DIMAPOST
  1

  9
$DIMALT
 70
     0
  9
$DIMALTD
 70
     2
  9
$DIMALTF
 40
25.4
  9
$DIMLFAC
 40
1.0
  9
$DIMTOFL
 70
     0
  9
$DIMTVP
 40
0.0
  9
$DIMTIX
 70
     0
  9
$DIMSOXD
 70
     0
  9
$DIMSAH
 70
     0
  9
$DIMBLK1
  1

  9
$DIMBLK2
  1

  9
$DIMSTYLE
  2
Standard
  9
$DIMCLRD
 70
     0
  9
$DIMCLRE
 70
     0
  9
$DIMCLRT
 70
     0
  9
$DIMTFAC
 40
1.0
  9
$DIMGAP
 40
0.09
  9
$DIMJUST
 70
     0
  9
$DIMSD1
 70
     0
  9
$DIMSD2
 70
     0
  9
$DIMTOLJ
 70
     1
  9
$DIMTZIN
 70
     0
  9
$DIMALTZ
 70
     0
  9
$DIMALTTZ
 70
     0
  9
$DIMUPT
 70
     0
  9
$DIMDEC
 70
     4
  9
$DIMTDEC
 70
     4
  9
$DIMALTU
 70
     2
  9
$DIMALTTD
 70
     2
  9
$DIMTXSTY
  7
Standard
  9
$DIMAUNIT
 70
     0
  9
$DIMADEC
 70
     0
  9
$DIMALTRND
 40
0.0
  9
$DIMAZIN
 70
     0
  9
$DIMDSEP
 70
    46
  9
$DIMATFIT
 70
     3
  9
$DIMFRAC
 70
     0
  9
$DIMLDRBLK
  1

  9
$DIMLUNIT
 70
     2
  9
$DIMLWD
 70
    -2
  9
$DIMLWE
 70
    -2
  9
$DIMTMOVE
 70
     0
  9
$DIMFXL
 40
1.0
  9
$DIMFXLON
 70
     0
  9
$DIMJOGANG
 40
0.7853981633974483
  9
$DIMTFILL
 70
     0
  9
$DIMTFILLCLR
 70
     0
  9
$DIMARCSYM
 70
     0
  9
$DIMLTYPE
  6

  9
$DIMLTEX1
  6

  9
$DIMLTEX2
  6

  9
$DIMTXTDIRECTION
 70
     0
  9
$LUNITS
 70
     2
  9
$LUPREC
 70
     4
  9
$SKETCHINC
 40
0.1
  9
$FILLETRAD
 40
0.5
  9
$AUNITS
 70
     0
  9
$AUPREC
 70
     0
  9
$MENU
  1
.
  9
$ELEVATION
 40
0.0
  9
$PELEVATION
 40
0.0
  9
$THICKNESS
 40
0.0
  9
$LIMCHECK
 70
     0
  9
$CHAMFERA
 40
0.5
  9
$CHAMFERB
 40
0.5
  9
$CHAMFERC
 40
1.0
  9
$CHAMFERD
 40
0.0
  9
$SKPOLY
 70
     0
  9
$TDCREATE
 40
2458101.917673599
  9
$TDUCREATE
 40
2458101.876006945
  9
$TDUPDATE
 40
2458101.917673599
  9
$TDUUPDATE
 40
2458101.876006945
  9
$TDINDWG
 40
0.0000000116
  9
$TDUSRTIMER
 40
0.0000000116
  9
$USRTIMER
 70
     1
  9
$ANGBASE
 50
0.0
  9
$ANGDIR
 70
     0
  9
$PDMODE
 70
     0
  9
$PDSIZE
 40
0.0
  9
$PLINEWID
 40
0.0
  9
$SPLFRAME
 70
     0
  9
$SPLINETYPE
 70
     6
  9
$SPLINESEGS
 70
     8
  9
$HANDSEED
  5
311
  9
$SURFTAB1
 70
     6
  9
$SURFTAB2
 70
     6
  9
$SURFTYPE
 70
     6
  9
$SURFU
 70
     6
  9
$SURFV
 70
     6
  9
$UCSBASE
  2

  9
$UCSNAME
  2

  9
$UCSORG
 10
0.0
 20
0.0
 30
0.0
  9
$UCSXDIR
 10
1.0
 20
0.0
 30
0.0
  9
$UCSYDIR
 10
0.0
 20
1.0
 30
0.0
  9
$UCSORTHOREF
  2

  9
$UCSORTHOVIEW
 70
     0
  9
$UCSORGTOP
 10
0.0
 20
0.0
 30
0.0
  9
$UCSORGBOTTOM
 10
0.0
 20
0.0
 30
0.0
  9
$UCSORGLEFT
 10
0.0
 20
0.0
 30
0.0
  9
$UCSORGRIGHT
 10
0.0
 20
0.0
 30
0.0
  9
$UCSORGFRONT
 10
0.0
 20
0.0
 30
0.0
  9
$UCSORGBACK
 10
0.0
 20
0.0
 30
0.0
  9
$PUCSBASE
  2

  9
$PUCSNAME
  2

  9
$PUCSORG
 10
0.0
 20
0.0
 30
0.0
  9
$PUCSXDIR
 10
1.0
 20
0.0
 30
0.0
  9
$PUCSYDIR
 10
0.0
 20
1.0
 30
0.0
  9
$PUCSORTHOREF
  2

  9
$PUCSORTHOVIEW
 70
     0
  9
$PUCSORGTOP
 10
0.0
 20
0.0
 30
0.0
  9
$PUCSORGBOTTOM
 10
0.0
 20
0.0
 30
0.0
  9
$PUCSORGLEFT
 10
0.0
 20
0.0
 30
0.0
  9
$PUCSORGRIGHT
 10
0.0
 20
0.0
 30
0.0
  9
$PUCSORGFRONT
 10
0.0
 20
0.0
 30
0.0
  9
$PUCSORGBACK
 10
0.0
 20
0.0
 30
0.0
  9
$USERI1
 70
     0
  9
$USERI2
 70
     0
  9
$USERI3
 70
     0
  9
$USERI4
 70
     0
  9
$USERI5
 70
     0
  9
$USERR1
 40
0.0
  9
$USERR2
 40
0.0
  9
$USERR3
 40
0.0
  9
$USERR4
 40
0.0
  9
$USERR5
 40
0.0
  9
$WORLDVIEW
 70
     1
  9
$SHADEDGE
 70
     3
  9
$SHADEDIF
 70
    70
  9
$TILEMODE
 70
     1
  9
$MAXACTVP
 70
    64
  9
$PINSBASE
 10
0.0
 20
0.0
 30
0.0
  9
$PLIMCHECK
 70
     0
  9
$PEXTMIN
 10
1.000000000000000E+20
 20
1.000000000000000E+20
 30
1.000000000000000E+20
  9
$PEXTMAX
 10
-1.000000000000000E+20
 20
-1.000000000000000E+20
 30
-1.000000000000000E+20
  9
$PLIMMIN
 10
0.0
 20
0.0
  9
$PLIMMAX
 10
12.0
 20
9.0
  9
$UNITMODE
 70
     0
  9
$VISRETAIN
 70
     1
  9
$PLINEGEN
 70
     0
  9
$PSLTSCALE
 70
     1
  9
$TREEDEPTH
 70
  3020
  9
$CMLSTYLE
  2
Standard
  9
$CMLJUST
 70
     0
  9
$CMLSCALE
 40
1.0
  9
$PROXYGRAPHICS
 70
     1
  9
$MEASUREMENT
 70
     0
  9
$CELWEIGHT
370
    -1
  9
$ENDCAPS
280
     0
  9
$JOINSTYLE
280
     0
  9
$LWDISPLAY
290
     1
  9
$INSUNITS
 70
     1
  9
$HYPERLINKBASE
  1

  9
$STYLESHEET
  1

  9
$XEDIT
290
     1
  9
$CEPSNTYPE
380
     0
  9
$PSTYLEMODE
290
     1
  9
$FINGERPRINTGUID
  2
{3C4F0274-18EF-8931-6F46-41515AE0765E}
  9
$VERSIONGUID
  2
{FAEB1C32-E019-11D5-929B-00C0DF256EC4}
  9
$EXTNAMES
290
     1
  9
$PSVPSCALE
 40
0.0
  9
$OLESTARTUP
290
     0
  9
$SORTENTS
280
   127
  9
$INDEXCTL
280
     0
  9
$HIDETEXT
280
     1
  9
$XCLIPFRAME
280
     2
  9
$HALOGAP
280
     0
  9
$OBSCOLOR
 70
   257
  9
$OBSLTYPE
280
     0
  9
$INTERSECTIONDISPLAY
280
     0
  9
$INTERSECTIONCOLOR
 70
   257
  9
$DIMASSOC
280
     2
  9
$PROJECTNAME
  1

  9
$CAMERADISPLAY
290
     0
  9
$LENSLENGTH
 40
50.0
  9
$CAMERAHEIGHT
 40
0.0
  9
$STEPSPERSEC
 40
2.0
  9
$STEPSIZE
 40
6.0
  9
$3DDWFPREC
 40
2.0
  9
$PSOLWIDTH
 40
0.25
  9
$PSOLHEIGHT
 40
4.0
  9
$LOFTANG1
 40
1.570796326794897
  9
$LOFTANG2
 40
1.570796326794897
  9
$LOFTMAG1
 40
0.0
  9
$LOFTMAG2
 40
0.0
  9
$LOFTPARAM
 70
     7
  9
$LOFTNORMALS
280
     1
  9
$LATITUDE
 40
37.795
  9
$LONGITUDE
 40
-122.394
  9
$NORTHDIRECTION
 40
0.0
  9
$TIMEZONE
 70
 -8000
  9
$LIGHTGLYPHDISPLAY
280
     1
  9
$TILEMODELIGHTSYNCH
280
     1
  9
$CMATERIAL
347
3C
  9
$SOLIDHIST
280
     1
  9
$SHOWHIST
280
     1
  9
$DWFFRAME
280
     2
  9
$DGNFRAME
280
     2
  9
$REALWORLDSCALE
290
     1
  9
$INTERFERECOLOR
 62
   256
  9
$CSHADOW
280
     0
  9
$SHADOWPLANELOCATION
 40
0.0
  0
ENDSEC
  0
SECTION
  2
CLASSES
  0
CLASS
  1
ACDBDICTIONARYWDFLT
  2
AcDbDictionaryWithDefault
  3
ObjectDBX Classes
 90
        0
 91
        4
280
     0
281
     0
  0
CLASS
  1
VISUALSTYLE
  2
AcDbVisualStyle
  3
ObjectDBX Classes
 90
     4095
 91
        4
280
     0
281
     0
  0
CLASS
  1
MATERIAL
  2
AcDbMaterial
  3
ObjectDBX Classes
 90
     1153
 91
        4
280
     0
281
     0
  0
CLASS
  1
SUN
  2
AcDbSun
  3
SCENEOE
 90
     1024
 91
        4
280
     0
281
     0
  0
ENDSEC
  0
SECTION
  2
TABLES
  0
TABLE
  2
VPORT
  5
8
330
0
100
AcDbSymbolTable
 70
     1
  0
VPORT
  5
29
330
8
100
AcDbSymbolTableRecord
100
AcDbViewportTableRecord
  2
*Active
 70
     0
 10
0.0
 20
0.0
 11
1.0
 21
1.0
 12
0.0
 22
0.0
 13
0.0
 23
0.0
 14
0.5
 24
0.5
 15
0.5
 25
0.5
 16
0.0
 26
0.0
 36
1.0
 17
606.9541665149281
 27
9.9478888530701
 37
0.0
 40
146.6153333633432
 41
2.04762954819905
 42
50.0
 43
0.0
 44
0.0
 50
0.0
 51
0.0
 71
     0
 72
   100
 73
     1
 74
     3
 75
     0
 76
     0
 77
     0
 78
     0
281
     0
 65
     1
110
0.0
120
0.0
130
0.0
111
1.0
121
0.0
131
0.0
112
0.0
122
1.0
132
0.0
 79
     0
146
0.0
 60
     3
 61
     5
292
     1
282
     1
141
0.0
142
0.0
 63
   250
361
3F
  0
ENDTAB
  0
TABLE
  2
LTYPE
  5
5
330
0
100
AcDbSymbolTable
 70
     1
  0
LTYPE
  5
14
330
5
100
AcDbSymbolTableRecord
100
AcDbLinetypeTableRecord
  2
ByBlock
 70
     0
  3

 72
    65
 73
     0
 40
0.0
  0
LTYPE
  5
15
330
5
100
AcDbSymbolTableRecord
100
AcDbLinetypeTableRecord
  2
ByLayer
 70
     0
  3

 72
    65
 73
     0
 40
0.0
  0
LTYPE
  5
16
330
5
100
AcDbSymbolTableRecord
100
AcDbLinetypeTableRecord
  2
Continuous
 70
     0
  3
Solid line
 72
    65
 73
     0
 40
0.0
  0
ENDTAB
  0
TABLE
  2
LAYER
  5
2
330
0
100
AcDbSymbolTable
 70
     3
  0
LAYER
  5
10
330
2
100
AcDbSymbolTableRecord
100
AcDbLayerTableRecord
  2
0
 70
     0
 62
     7
  6
Continuous
370
    -3
390
F
347
3E
  0
LAYER
  5
40
330
2
100
AcDbSymbolTableRecord
100
AcDbLayerTableRecord
  2
Cut
 70
     0
 62
     7
  6
Continuous
370
    -3
390
F
347
3E
  0
LAYER
  5
2F6
330
2
100
AcDbSymbolTableRecord
100
AcDbLayerTableRecord
  2
Ritzen
 70
     0
 62
     7
  6
Continuous
370
    -3
390
F
347
3E
  0
ENDTAB
  0
TABLE
  2
STYLE
  5
3
330
0
100
AcDbSymbolTable
 70
     1
  0
STYLE
  5
11
330
3
100
AcDbSymbolTableRecord
100
AcDbTextStyleTableRecord
  2
Standard
 70
     0
 40
0.0
 41
1.0
 50
0.0
 71
     0
 42
0.2
  3
txt
  4

  0
ENDTAB
  0
TABLE
  2
VIEW
  5
6
330
0
100
AcDbSymbolTable
 70
     0
  0
ENDTAB
  0
TABLE
  2
UCS
  5
7
330
0
100
AcDbSymbolTable
 70
     0
  0
ENDTAB
  0
TABLE
  2
APPID
  5
9
330
0
100
AcDbSymbolTable
 70
     1
  0
APPID
  5
12
330
9
100
AcDbSymbolTableRecord
100
AcDbRegAppTableRecord
  2
ACAD
 70
     0
  0
ENDTAB
  0
TABLE
  2
DIMSTYLE
  5
A
330
0
100
AcDbSymbolTable
 70
     1
100
AcDbDimStyleTable
  0
DIMSTYLE
105
27
330
A
100
AcDbSymbolTableRecord
100
AcDbDimStyleTableRecord
  2
Standard
 70
     0
178
     0
340
11
  0
ENDTAB
  0
TABLE
  2
BLOCK_RECORD
  5
1
330
0
100
AcDbSymbolTable
 70
     7
  0
BLOCK_RECORD
  5
1F
330
1
100
AcDbSymbolTableRecord
100
AcDbBlockTableRecord
  2
*Model_Space
340
22
 70
     0
280
     1
281
     0
  0
BLOCK_RECORD
  5
1B
330
1
100
AcDbSymbolTableRecord
100
AcDbBlockTableRecord
  2
*Paper_Space
340
1E
 70
     0
280
     1
281
     0
  0
BLOCK_RECORD
  5
23
330
1
100
AcDbSymbolTableRecord
100
AcDbBlockTableRecord
  2
*Paper_Space0
340
26
 70
     0
280
     1
281
     0
  0
BLOCK_RECORD
  5
41
330
1
100
AcDbSymbolTableRecord
100
AcDbBlockTableRecord
  2
block 2
340
0
102
{BLKREFS
331
42
102
}
 70
     0
280
     1
281
     0
  0
BLOCK_RECORD
  5
B0
330
1
100
AcDbSymbolTableRecord
100
AcDbBlockTableRecord
  2
block 3
340
0
102
{BLKREFS
331
B1
102
}
 70
     0
280
     1
281
     0
  0
BLOCK_RECORD
  5
11F
330
1
100
AcDbSymbolTableRecord
100
AcDbBlockTableRecord
  2
block 4
340
0
102
{BLKREFS
331
120
102
}
 70
     0
280
     1
281
     0
  0
BLOCK_RECORD
  5
19D
330
1
100
AcDbSymbolTableRecord
100
AcDbBlockTableRecord
  2
block 5
340
0
102
{BLKREFS
331
19E
102
}
 70
     0
280
     1
281
     0
  0
BLOCK_RECORD
  5
20C
330
1
100
AcDbSymbolTableRecord
100
AcDbBlockTableRecord
  2
block 6
340
0
102
{BLKREFS
331
20D
102
}
 70
     0
280
     1
281
     0
  0
BLOCK_RECORD
  5
27B
330
1
100
AcDbSymbolTableRecord
100
AcDbBlockTableRecord
  2
block 7
340
0
102
{BLKREFS
331
27C
102
}
 70
     0
280
     1
281
     0
  0
ENDTAB
  0
ENDSEC
  0
SECTION
  2
BLOCKS
  0
BLOCK
  5
20
330
1F
100
AcDbEntity
  8
0
100
AcDbBlockBegin
  2
*Model_Space
 70
     0
 10
0.0
 20
0.0
 30
0.0
  3
*Model_Space
  1

  0
ENDBLK
  5
21
330
1F
100
AcDbEntity
  8
0
100
AcDbBlockEnd
  0
BLOCK
  5
1C
330
1B
100
AcDbEntity
 67
     1
  8
0
100
AcDbBlockBegin
  2
*Paper_Space
 70
     0
 10
0.0
 20
0.0
 30
0.0
  3
*Paper_Space
  1

  0
ENDBLK
  5
1D
330
1B
100
AcDbEntity
 67
     1
  8
0
100
AcDbBlockEnd
  0
BLOCK
  5
24
330
23
100
AcDbEntity
  8
0
100
AcDbBlockBegin
  2
*Paper_Space0
 70
     0
 10
0.0
 20
0.0
 30
0.0
  3
*Paper_Space0
  1

  0
ENDBLK
  5
25
330
23
100
AcDbEntity
  8
0
100
AcDbBlockEnd
  0
BLOCK
  5
43
330
41
100
AcDbEntity
  8
0
100
AcDbBlockBegin
  2
block 2
 70
     0
 10
0.0
 20
0.0
 30
0.0
  3
block 2
  1

  0
POLYLINE
  5
45
330
41
100
AcDbEntity
  8
Cut
 62
   179
420
  1842203
370
     9
100
AcDb2dPolyline
 66
     1
 10
0.0
 20
0.0
 30
0.0
  0
VERTEX
  5
46
330
45
100
AcDbEntity
  8
Cut
 62
   179
420
  1842203
370
     9
100
AcDbVertex
100
AcDb2dVertex
 10
498.319409134624
 20
5.549359231607744
 30
0.0
  0
VERTEX
  5
47
330
45
100
AcDbEntity
  8
Cut
 62
   179
420
  1842203
370
     9
100
AcDbVertex
100
AcDb2dVertex
 10
497.6900372983054
 20
10.07022436047439
 30
0.0
  0
VERTEX
  5
48
330
45
100
AcDbEntity
  8
Cut
 62
   179
420
  1842203
370
     9
100
AcDbVertex
100
AcDb2dVertex
 10
494.8712389688514
 20
8.337311017721362
 30
0.0
  0
VERTEX
  5
49
330
45
100
AcDbEntity
  8
Cut
 62
   179
420
  1842203
370
     9
100
AcDbVertex
100
AcDb2dVertex
 10
498.1056731144002
 20
5.353774997276872
 30
0.0
  0
VERTEX
  5
4A
330
45
100
AcDbEntity
  8
Cut
 62
   179
420
  1842203
370
     9
100
AcDbVertex
100
AcDb2dVertex
 10
498.319409134624
 20
5.549359231607744
 30
0.0
  0
SEQEND
  5
4B
330
45
100
AcDbEntity
  8
Cut
 62
   179
420
  1842203
370
     9
  0
POLYLINE
  5
4C
330
41
100
AcDbEntity
  8
Cut
 62
   179
420
  1842203
370
     9
100
AcDb2dPolyline
 66
     1
 10
0.0
 20
0.0
 30
0.0
  0
VERTEX
  5
4D
330
4C
100
AcDbEntity
  8
Cut
 62
   179
420
  1842203
370
     9
100
AcDbVertex
100
AcDb2dVertex
 10
567.3121717235546
 20
44.48551347152847
 30
0.0
  0
VERTEX
  5
4E
330
4C
100
AcDbEntity
  8
Cut
 62
   179
420
  1842203
370
     9
100
AcDbVertex
100
AcDb2dVertex
 10
557.77646343939
 20
43.40565829216885
 30
0.0
  0
VERTEX
  5
4F
330
4C
100
AcDbEntity
  8
Cut
 62
   179
420
  1842203
370
     9
100
AcDbVertex
100
AcDb2dVertex
 10
553.2600887812412
 20
34.93819430181259
 30
0.0
  0
VERTEX
  5
50
330
4C
100
AcDbEntity
  8
Cut
 62
   179
420
  1842203
370
     9
100
AcDbVertex
100
AcDb2dVertex
 10
549.9558889084647
 20
42.2017429127828
 30
0.0
  0
VERTEX
  5
51
330
4C
100
AcDbEntity
  8
Cut
 62
   179
420
  1842203
370
     9
100
AcDbVertex
100
AcDb2dVertex
 10
535.6015841679254
 20
33.37713126613738
 30
0.0
  0
VERTEX
  5
52
330
4C
100
AcDbEntity
  8
Cut
 62
   179
420
  1842203
370
     9
100
AcDbVertex
100
AcDb2dVertex
 10
535.4157372954412
 20
30.73942553968647
 30
0.0
  0
VERTEX
  5
53
330
4C
100
AcDbEntity
  8
Cut
 62
   179
420
  1842203
370
     9
100
AcDbVertex
100
AcDb2dVertex
 10
544.707872581821
 20
23.33075214463737
 30
0.0
  0
VERTEX
  5
54
330
4C
100
AcDbEntity
  8
Cut
 62
   179
420
  1842203
370
     9
100
AcDbVertex
100
AcDb2dVertex
 10
533.1752465297191
 20
20.46179293986072
 30
0.0
  0
VERTEX
  5
55
330
4C
100
AcDbEntity
  8
Cut
 62
   179
420
  1842203
370
     9
100
AcDbVertex
100
AcDb2dVertex
 10
529.0005999099707
 20
9.335040360102694
 30
0.0
  0
VERTEX
  5
56
330
4C
100
AcDbEntity
  8
Cut
 62
   179
420
  1842203
370
     9
100
AcDbVertex
100
AcDb2dVertex
 10
522.7082906697896
 20
19.41665224629055
 30
0.0
  0
VERTEX
  5
57
330
4C
100
AcDbEntity
  8
Cut
 62
   179
420
  1842203
370
     9
100
AcDbVertex
100
AcDb2dVertex
 10
513.5599289124098
 20
19.82656131740548
 30
0.0
  0
VERTEX
  5
58
330
4C
100
AcDbEntity
  8
Cut
 62
   179
420
  1842203
370
     9
100
AcDbVertex
100
AcDb2dVertex
 10
501.8491539362273
 20
12.62713528807056
 30
0.0
  0
VERTEX
  5
59
330
4C
100
AcDbEntity
  8
Cut
 62
   179
420
  1842203
370
     9
100
AcDbVertex
100
AcDb2dVertex
 10
505.6045292580146
 20
10.49905530233067
 30
0.0
  0
VERTEX
  5
5A
330
4C
100
AcDbEntity
  8
Cut
 62
   179
420
  1842203
370
     9
100
AcDbVertex
100
AcDb2dVertex
 10
514.5536773145514
 20
14.84944310679778
 30
0.0
  0
VERTEX
  5
5B
330
4C
100
AcDbEntity
  8
Cut
 62
   179
420
  1842203
370
     9
100
AcDbVertex
100
AcDb2dVertex
 10
512.5631950482616
 20
5.10003397796881
 30
0.0
  0
VERTEX
  5
5C
330
4C
100
AcDbEntity
  8
Cut
 62
   179
420
  1842203
370
     9
100
AcDbVertex
100
AcDb2dVertex
 10
519.4661132462248
 20
-2.066775154928969
 30
0.0
  0
VERTEX
  5
5D
330
4C
100
AcDbEntity
  8
Cut
 62
   179
420
  1842203
370
     9
100
AcDbVertex
100
AcDb2dVertex
 10
509.578774751234
 20
-3.186454012204556
 30
0.0
  0
VERTEX
  5
5E
330
4C
100
AcDbEntity
  8
Cut
 62
   179
420
  1842203
370
     9
100
AcDbVertex
100
AcDb2dVertex
 10
508.8484522588006
 20
-4.555676577461337
 30
0.0
  0
VERTEX
  5
5F
330
4C
100
AcDbEntity
  8
Cut
 62
   179
420
  1842203
370
     9
100
AcDbVertex
100
AcDb2dVertex
 10
522.7292439640752
 20
-17.35972210176792
 30
0.0
  0
VERTEX
  5
60
330
4C
100
AcDbEntity
  8
Cut
 62
   179
420
  1842203
370
     9
100
AcDbVertex
100
AcDb2dVertex
 10
526.789580755347
 20
-7.261531339435721
 30
0.0
  0
VERTEX
  5
61
330
4C
100
AcDbEntity
  8
Cut
 62
   179
420
  1842203
370
     9
100
AcDbVertex
100
AcDb2dVertex
 10
517.6516086934773
 20
5.659150338542379
 30
0.0
  0
VERTEX
  5
62
330
4C
100
AcDbEntity
  8
Cut
 62
   179
420
  1842203
370
     9
100
AcDbVertex
100
AcDb2dVertex
 10
533.7661360046352
 20
4.581586831794644
 30
0.0
  0
VERTEX
  5
63
330
4C
100
AcDbEntity
  8
Cut
 62
   179
420
  1842203
370
     9
100
AcDbVertex
100
AcDb2dVertex
 10
543.5908827551772
 20
16.70023449298084
 30
0.0
  0
VERTEX
  5
64
330
4C
100
AcDbEntity
  8
Cut
 62
   179
420
  1842203
370
     9
100
AcDbVertex
100
AcDb2dVertex
 10
547.7748909985069
 20
1.670892258507037
 30
0.0
  0
VERTEX
  5
65
330
4C
100
AcDbEntity
  8
Cut
 62
   179
420
  1842203
370
     9
100
AcDbVertex
100
AcDb2dVertex
 10
550.1905636818549
 20
0.8083392164108241
 30
0.0
  0
VERTEX
  5
66
330
4C
100
AcDbEntity
  8
Cut
 62
   179
420
  1842203
370
     9
100
AcDbVertex
100
AcDb2dVertex
 10
558.3592377029792
 20
16.86137655447537
 30
0.0
  0
VERTEX
  5
67
330
4C
100
AcDbEntity
  8
Cut
 62
   179
420
  1842203
370
     9
100
AcDbVertex
100
AcDb2dVertex
 10
548.4408174867971
 20
14.01833169440395
 30
0.0
  0
VERTEX
  5
68
330
4C
100
AcDbEntity
  8
Cut
 62
   179
420
  1842203
370
     9
100
AcDbVertex
100
AcDb2dVertex
 10
552.3776220268438
 20
24.0278470125386
 30
0.0
  0
VERTEX
  5
69
330
4C
100
AcDbEntity
  8
Cut
 62
   179
420
  1842203
370
     9
100
AcDbVertex
100
AcDb2dVertex
 10
546.3638605393631
 20
32.94543510490674
 30
0.0
  0
VERTEX
  5
6A
330
4C
100
AcDbEntity
  8
Cut
 62
   179
420
  1842203
370
     9
100
AcDbVertex
100
AcDb2dVertex
 10
557.1000050298701
 20
32.29442981159399
 30
0.0
  0
VERTEX
  5
6B
330
4C
100
AcDbEntity
  8
Cut
 62
   179
420
  1842203
370
     9
100
AcDbVertex
100
AcDb2dVertex
 10
563.7228031471532
 20
40.76953309723078
 30
0.0
  0
VERTEX
  5
6C
330
4C
100
AcDbEntity
  8
Cut
 62
   179
420
  1842203
370
     9
100
AcDbVertex
100
AcDb2dVertex
 10
566.0182453615694
 20
31.91282277583241
 30
0.0
  0
VERTEX
  5
6D
330
4C
100
AcDbEntity
  8
Cut
 62
   179
420
  1842203
370
     9
100
AcDbVertex
100
AcDb2dVertex
 10
572.3832782269147
 20
44.42137674163769
 30
0.0
  0
VERTEX
  5
6E
330
4C
100
AcDbEntity
  8
Cut
 62
   179
420
  1842203
370
     9
100
AcDbVertex
100
AcDb2dVertex
 10
570.4043206317282
 20
43.73369769285754
 30
0.0
  0
VERTEX
  5
6F
330
4C
100
AcDbEntity
  8
Cut
 62
   179
420
  1842203
370
     9
100
AcDbVertex
100
AcDb2dVertex
 10
572.105994319332
 20
48.8783190319886
 30
0.0
  0
VERTEX
  5
70
330
4C
100
AcDbEntity
  8
Cut
 62
   179
420
  1842203
370
     9
100
AcDbVertex
100
AcDb2dVertex
 10
568.8327016521469
 20
53.19667106514947
 30
0.0
  0
VERTEX
  5
71
330
4C
100
AcDbEntity
  8
Cut
 62
   179
420
  1842203
370
     9
100
AcDbVertex
100
AcDb2dVertex
 10
574.2513661947738
 20
53.16806068693133
 30
0.0
  0
VERTEX
  5
72
330
4C
100
AcDbEntity
  8
Cut
 62
   179
420
  1842203
370
     9
100
AcDbVertex
100
AcDb2dVertex
 10
577.3468583383473
 20
57.61561410666879
 30
0.0
  0
VERTEX
  5
73
330
4C
100
AcDbEntity
  8
Cut
 62
   179
420
  1842203
370
     9
100
AcDbVertex
100
AcDb2dVertex
 10
578.0214615514892
 20
55.50148767081622
 30
0.0
  0
VERTEX
  5
74
330
4C
100
AcDbEntity
  8
Cut
 62
   179
420
  1842203
370
     9
100
AcDbVertex
100
AcDb2dVertex
 10
580.9495308326881
 20
61.25573213149695
 30
0.0
  0
VERTEX
  5
75
330
4C
100
AcDbEntity
  8
Cut
 62
   179
420
  1842203
370
     9
100
AcDbVertex
100
AcDb2dVertex
 10
562.2387511558154
 20
49.75288544513257
 30
0.0
  0
VERTEX
  5
76
330
4C
100
AcDbEntity
  8
Cut
 62
   179
420
  1842203
370
     9
100
AcDbVertex
100
AcDb2dVertex
 10
567.3121717235546
 20
44.48551347152847
 30
0.0
  0
SEQEND
  5
77
330
4C
100
AcDbEntity
  8
Cut
 62
   179
420
  1842203
370
     9
  0
POLYLINE
  5
78
330
41
100
AcDbEntity
  8
Cut
 62
   179
420
  1842203
370
     9
100
AcDb2dPolyline
 66
     1
 10
0.0
 20
0.0
 30
0.0
  0
VERTEX
  5
79
330
78
100
AcDbEntity
  8
Cut
 62
   179
420
  1842203
370
     9
100
AcDbVertex
100
AcDb2dVertex
 10
536.4865950413516
 20
-17.49168525689901
 30
0.0
  0
VERTEX
  5
7A
330
78
100
AcDbEntity
  8
Cut
 62
   179
420
  1842203
370
     9
100
AcDbVertex
100
AcDb2dVertex
 10
525.9296207432901
 20
-20.31184261809477
 30
0.0
  0
VERTEX
  5
7B
330
78
100
AcDbEntity
  8
Cut
 62
   179
420
  1842203
370
     9
100
AcDbVertex
100
AcDb2dVertex
 10
535.126563722813
 20
-28.79537000576709
 30
0.0
  0
VERTEX
  5
7C
330
78
100
AcDbEntity
  8
Cut
 62
   179
420
  1842203
370
     9
100
AcDbVertex
100
AcDb2dVertex
 10
539.6152282640746
 20
-19.97425692264059
 30
0.0
  0
VERTEX
  5
7D
330
78
100
AcDbEntity
  8
Cut
 62
   179
420
  1842203
370
     9
100
AcDbVertex
100
AcDb2dVertex
 10
536.4865950413516
 20
-17.49168525689901
 30
0.0
  0
SEQEND
  5
7E
330
78
100
AcDbEntity
  8
Cut
 62
   179
420
  1842203
370
     9
  0
ENDBLK
  5
44
330
41
100
AcDbEntity
  8
0
100
AcDbBlockEnd
  0
BLOCK
  5
B2
330
B0
100
AcDbEntity
  8
0
100
AcDbBlockBegin
  2
block 3
 70
     0
 10
0.0
 20
0.0
 30
0.0
  3
block 3
  1

  0
POLYLINE
  5
B4
330
B0
100
AcDbEntity
  8
Cut
 62
   179
420
  1842203
370
     9
100
AcDb2dPolyline
 66
     1
 10
0.0
 20
0.0
 30
0.0
  0
VERTEX
  5
B5
330
B4
100
AcDbEntity
  8
Cut
 62
   179
420
  1842203
370
     9
100
AcDbVertex
100
AcDb2dVertex
 10
474.1332008466019
 20
68.63863689510508
 30
0.0
  0
VERTEX
  5
B6
330
B4
100
AcDbEntity
  8
Cut
 62
   179
420
  1842203
370
     9
100
AcDbVertex
100
AcDb2dVertex
 10
475.9548655012744
 20
72.82383322355452
 30
0.0
  0
VERTEX
  5
B7
330
B4
100
AcDbEntity
  8
Cut
 62
   179
420
  1842203
370
     9
100
AcDbVertex
100
AcDb2dVertex
 10
472.6460058577162
 20
72.81605280914266
 30
0.0
  0
VERTEX
  5
B8
330
B4
100
AcDbEntity
  8
Cut
 62
   179
420
  1842203
370
     9
100
AcDbVertex
100
AcDb2dVertex
 10
473.8488192963959
 20
68.5832887879721
 30
0.0
  0
VERTEX
  5
B9
330
B4
100
AcDbEntity
  8
Cut
 62
   179
420
  1842203
370
     9
100
AcDbVertex
100
AcDb2dVertex
 10
474.1332008466019
 20
68.63863689510508
 30
0.0
  0
SEQEND
  5
BA
330
B4
100
AcDbEntity
  8
Cut
 62
   179
420
  1842203
370
     9
  0
POLYLINE
  5
BB
330
B0
100
AcDbEntity
  8
Cut
 62
   179
420
  1842203
370
     9
100
AcDb2dPolyline
 66
     1
 10
0.0
 20
0.0
 30
0.0
  0
VERTEX
  5
BC
330
BB
100
AcDbEntity
  8
Cut
 62
   179
420
  1842203
370
     9
100
AcDbVertex
100
AcDb2dVertex
 10
553.3058769344952
 20
65.86145167824782
 30
0.0
  0
VERTEX
  5
BD
330
BB
100
AcDbEntity
  8
Cut
 62
   179
420
  1842203
370
     9
100
AcDbVertex
100
AcDb2dVertex
 10
544.6073897614937
 20
69.91510935869292
 30
0.0
  0
VERTEX
  5
BE
330
BB
100
AcDbEntity
  8
Cut
 62
   179
420
  1842203
370
     9
100
AcDbVertex
100
AcDb2dVertex
 10
536.3367883141175
 20
65.04759067055173
 30
0.0
  0
VERTEX
  5
BF
330
BB
100
AcDbEntity
  8
Cut
 62
   179
420
  1842203
370
     9
100
AcDbVertex
100
AcDb2dVertex
 10
537.3073952788748
 20
72.96812078811081
 30
0.0
  0
VERTEX
  5
C0
330
BB
100
AcDbEntity
  8
Cut
 62
   179
420
  1842203
370
     9
100
AcDbVertex
100
AcDb2dVertex
 10
520.4575209563881
 20
72.92848980463609
 30
0.0
  0
VERTEX
  5
C1
330
BB
100
AcDbEntity
  8
Cut
 62
   179
420
  1842203
370
     9
100
AcDbVertex
100
AcDb2dVertex
 10
518.922845236918
 20
70.77516656010519
 30
0.0
  0
VERTEX
  5
C2
330
BB
100
AcDbEntity
  8
Cut
 62
   179
420
  1842203
370
     9
100
AcDbVertex
100
AcDb2dVertex
 10
522.9849578922292
 20
59.60684258421668
 30
0.0
  0
VERTEX
  5
C3
330
BB
100
AcDbEntity
  8
Cut
 62
   179
420
  1842203
370
     9
100
AcDbVertex
100
AcDb2dVertex
 10
511.649459178942
 20
63.17599647516319
 30
0.0
  0
VERTEX
  5
C4
330
BB
100
AcDbEntity
  8
Cut
 62
   179
420
  1842203
370
     9
100
AcDbVertex
100
AcDb2dVertex
 10
502.2830071557373
 20
55.86149896214214
 30
0.0
  0
VERTEX
  5
C5
330
BB
100
AcDbEntity
  8
Cut
 62
   179
420
  1842203
370
     9
100
AcDbVertex
100
AcDb2dVertex
 10
502.1746161967465
 20
67.74511395076377
 30
0.0
  0
VERTEX
  5
C6
330
BB
100
AcDbEntity
  8
Cut
 62
   179
420
  1842203
370
     9
100
AcDbVertex
100
AcDb2dVertex
 10
494.5838121138963
 20
72.86763692936204
 30
0.0
  0
VERTEX
  5
C7
330
BB
100
AcDbEntity
  8
Cut
 62
   179
420
  1842203
370
     9
100
AcDbVertex
100
AcDb2dVertex
 10
480.8370691757358
 20
72.83532150268506
 30
0.0
  0
VERTEX
  5
C8
330
BB
100
AcDbEntity
  8
Cut
 62
   179
420
  1842203
370
     9
100
AcDbVertex
100
AcDb2dVertex
 10
482.9306111380407
 20
69.06058306336303
 30
0.0
  0
VERTEX
  5
C9
330
BB
100
AcDbEntity
  8
Cut
 62
   179
420
  1842203
370
     9
100
AcDbVertex
100
AcDb2dVertex
 10
492.8349714911921
 20
68.10310148028695
 30
0.0
  0
VERTEX
  5
CA
330
BB
100
AcDbEntity
  8
Cut
 62
   179
420
  1842203
370
     9
100
AcDbVertex
100
AcDb2dVertex
 10
486.0504540713546
 20
60.82413717252685
 30
0.0
  0
VERTEX
  5
CB
330
BB
100
AcDbEntity
  8
Cut
 62
   179
420
  1842203
370
     9
100
AcDbVertex
100
AcDb2dVertex
 10
488.2004593553239
 20
51.10863872550403
 30
0.0
  0
VERTEX
  5
CC
330
BB
100
AcDbEntity
  8
Cut
 62
   179
420
  1842203
370
     9
100
AcDbVertex
100
AcDb2dVertex
 10
479.1812125457921
 20
55.31177210986467
 30
0.0
  0
VERTEX
  5
CD
330
BB
100
AcDbEntity
  8
Cut
 62
   179
420
  1842203
370
     9
100
AcDbVertex
100
AcDb2dVertex
 10
477.843817661556
 20
54.52467853233939
 30
0.0
  0
VERTEX
  5
CE
330
BB
100
AcDbEntity
  8
Cut
 62
   179
420
  1842203
370
     9
100
AcDbVertex
100
AcDb2dVertex
 10
483.0057724429276
 20
36.35948701149712
 30
0.0
  0
VERTEX
  5
CF
330
BB
100
AcDbEntity
  8
Cut
 62
   179
420
  1842203
370
     9
100
AcDbVertex
100
AcDb2dVertex
 10
491.7380900936978
 20
42.85613383713526
 30
0.0
  0
VERTEX
  5
D0
330
BB
100
AcDbEntity
  8
Cut
 62
   179
420
  1842203
370
     9
100
AcDbVertex
100
AcDb2dVertex
 10
490.6831847197045
 20
58.64643855487586
 30
0.0
  0
VERTEX
  5
D1
330
BB
100
AcDbEntity
  8
Cut
 62
   179
420
  1842203
370
     9
100
AcDbVertex
100
AcDb2dVertex
 10
503.8686464371435
 20
49.31998516298185
 30
0.0
  0
VERTEX
  5
D2
330
BB
100
AcDbEntity
  8
Cut
 62
   179
420
  1842203
370
     9
100
AcDbVertex
100
AcDb2dVertex
 10
518.5728019809613
 20
54.5329574045558
 30
0.0
  0
VERTEX
  5
D3
330
BB
100
AcDbEntity
  8
Cut
 62
   179
420
  1842203
370
     9
100
AcDbVertex
100
AcDb2dVertex
 10
514.3012610300916
 20
39.52825844435397
 30
0.0
  0
VERTEX
  5
D4
330
BB
100
AcDbEntity
  8
Cut
 62
   179
420
  1842203
370
     9
100
AcDbVertex
100
AcDb2dVertex
 10
515.9121167024554
 20
37.5321080827055
 30
0.0
  0
VERTEX
  5
D5
330
BB
100
AcDbEntity
  8
Cut
 62
   179
420
  1842203
370
     9
100
AcDbVertex
100
AcDb2dVertex
 10
531.256064885383
 20
46.9655855539403
 30
0.0
  0
VERTEX
  5
D6
330
BB
100
AcDbEntity
  8
Cut
 62
   179
420
  1842203
370
     9
100
AcDbVertex
100
AcDb2dVertex
 10
521.3111988396422
 20
49.71469504491009
 30
0.0
  0
VERTEX
  5
D7
330
BB
100
AcDbEntity
  8
Cut
 62
   179
420
  1842203
370
     9
100
AcDbVertex
100
AcDb2dVertex
 10
529.8918653906435
 20
56.20013939599523
 30
0.0
  0
VERTEX
  5
D8
330
BB
100
AcDbEntity
  8
Cut
 62
   179
420
  1842203
370
     9
100
AcDbVertex
100
AcDb2dVertex
 10
529.4138227917568
 20
66.9453792670778
 30
0.0
  0
VERTEX
  5
D9
330
BB
100
AcDbEntity
  8
Cut
 62
   179
420
  1842203
370
     9
100
AcDbVertex
100
AcDb2dVertex
 10
538.2334145059832
 20
60.78880486182903
 30
0.0
  0
VERTEX
  5
DA
330
BB
100
AcDbEntity
  8
Cut
 62
   179
420
  1842203
370
     9
100
AcDbVertex
100
AcDb2dVertex
 10
548.305035451729
 20
64.56389189786847
 30
0.0
  0
VERTEX
  5
DB
330
BB
100
AcDbEntity
  8
Cut
 62
   179
420
  1842203
370
     9
100
AcDbVertex
100
AcDb2dVertex
 10
545.6426627251616
 20
55.81048432471763
 30
0.0
  0
VERTEX
  5
DC
330
BB
100
AcDbEntity
  8
Cut
 62
   179
420
  1842203
370
     9
100
AcDbVertex
100
AcDb2dVertex
 10
557.5986831417841
 20
63.16107215765672
 30
0.0
  0
VERTEX
  5
DD
330
BB
100
AcDbEntity
  8
Cut
 62
   179
420
  1842203
370
     9
100
AcDbVertex
100
AcDb2dVertex
 10
555.5516217353087
 20
63.60684702886757
 30
0.0
  0
VERTEX
  5
DE
330
BB
100
AcDbEntity
  8
Cut
 62
   179
420
  1842203
370
     9
100
AcDbVertex
100
AcDb2dVertex
 10
559.6873719960489
 20
67.10804565832409
 30
0.0
  0
VERTEX
  5
DF
330
BB
100
AcDbEntity
  8
Cut
 62
   179
420
  1842203
370
     9
100
AcDbVertex
100
AcDb2dVertex
 10
559.1477986539213
 20
72.49984218414298
 30
0.0
  0
VERTEX
  5
E0
330
BB
100
AcDbEntity
  8
Cut
 62
   179
420
  1842203
370
     9
100
AcDbVertex
100
AcDb2dVertex
 10
563.755648471112
 20
69.64844532619983
 30
0.0
  0
VERTEX
  5
E1
330
BB
100
AcDbEntity
  8
Cut
 62
   179
420
  1842203
370
     9
100
AcDbVertex
100
AcDb2dVertex
 10
568.716824928235
 20
71.82778724376193
 30
0.0
  0
VERTEX
  5
E2
330
BB
100
AcDbEntity
  8
Cut
 62
   179
420
  1842203
370
     9
100
AcDbVertex
100
AcDb2dVertex
 10
568.189375421158
 20
69.6722323037437
 30
0.0
  0
VERTEX
  5
E3
330
BB
100
AcDbEntity
  8
Cut
 62
   179
420
  1842203
370
     9
100
AcDbVertex
100
AcDb2dVertex
 10
573.6894378740042
 20
73.05368643526063
 30
0.0
  0
VERTEX
  5
E4
330
BB
100
AcDbEntity
  8
Cut
 62
   179
420
  1842203
370
     9
100
AcDbVertex
100
AcDb2dVertex
 10
551.7256929893884
 20
73.00202745790868
 30
0.0
  0
VERTEX
  5
E5
330
BB
100
AcDbEntity
  8
Cut
 62
   179
420
  1842203
370
     9
100
AcDbVertex
100
AcDb2dVertex
 10
553.3058769344952
 20
65.86145167824782
 30
0.0
  0
SEQEND
  5
E6
330
BB
100
AcDbEntity
  8
Cut
 62
   179
420
  1842203
370
     9
  0
POLYLINE
  5
E7
330
B0
100
AcDbEntity
  8
Cut
 62
   179
420
  1842203
370
     9
100
AcDb2dPolyline
 66
     1
 10
0.0
 20
0.0
 30
0.0
  0
VERTEX
  5
E8
330
E7
100
AcDbEntity
  8
Cut
 62
   179
420
  1842203
370
     9
100
AcDbVertex
100
AcDb2dVertex
 10
494.6736099108677
 20
29.0695150115885
 30
0.0
  0
VERTEX
  5
E9
330
E7
100
AcDbEntity
  8
Cut
 62
   179
420
  1842203
370
     9
100
AcDbVertex
100
AcDb2dVertex
 10
484.1959207117342
 20
32.17129239208197
 30
0.0
  0
VERTEX
  5
EA
330
E7
100
AcDbEntity
  8
Cut
 62
   179
420
  1842203
370
     9
100
AcDbVertex
100
AcDb2dVertex
 10
487.6160573145391
 20
20.13565104131999
 30
0.0
  0
VERTEX
  5
EB
330
E7
100
AcDbEntity
  8
Cut
 62
   179
420
  1842203
370
     9
100
AcDbVertex
100
AcDb2dVertex
 10
496.047522075826
 20
25.31933191194456
 30
0.0
  0
VERTEX
  5
EC
330
E7
100
AcDbEntity
  8
Cut
 62
   179
420
  1842203
370
     9
100
AcDbVertex
100
AcDb2dVertex
 10
494.6736099108677
 20
29.0695150115885
 30
0.0
  0
SEQEND
  5
ED
330
E7
100
AcDbEntity
  8
Cut
 62
   179
420
  1842203
370
     9
  0
ENDBLK
  5
B3
330
B0
100
AcDbEntity
  8
0
100
AcDbBlockEnd
  0
BLOCK
  5
121
330
11F
100
AcDbEntity
  8
0
100
AcDbBlockBegin
  2
block 4
 70
     0
 10
0.0
 20
0.0
 30
0.0
  3
block 4
  1

  0
POLYLINE
  5
123
330
11F
100
AcDbEntity
  8
Cut
 62
   179
420
  1842203
370
     9
100
AcDb2dPolyline
 66
     1
 10
0.0
 20
0.0
 30
0.0
  0
VERTEX
  5
124
330
123
100
AcDbEntity
  8
Cut
 62
   179
420
  1842203
370
     9
100
AcDbVertex
100
AcDb2dVertex
 10
551.867523676778
 20
-35.65468385533116
 30
0.0
  0
VERTEX
  5
125
330
123
100
AcDbEntity
  8
Cut
 62
   179
420
  1842203
370
     9
100
AcDbVertex
100
AcDb2dVertex
 10
548.971883000566
 20
-32.12628542317956
 30
0.0
  0
VERTEX
  5
126
330
123
100
AcDbEntity
  8
Cut
 62
   179
420
  1842203
370
     9
100
AcDbVertex
100
AcDb2dVertex
 10
547.4712873126435
 20
-35.07532344548963
 30
0.0
  0
VERTEX
  5
127
330
123
100
AcDbEntity
  8
Cut
 62
   179
420
  1842203
370
     9
100
AcDbVertex
100
AcDb2dVertex
 10
551.7872289811025
 20
-35.93305238966417
 30
0.0
  0
VERTEX
  5
128
330
123
100
AcDbEntity
  8
Cut
 62
   179
420
  1842203
370
     9
100
AcDbVertex
100
AcDb2dVertex
 10
551.867523676778
 20
-35.65468385533116
 30
0.0
  0
SEQEND
  5
129
330
123
100
AcDbEntity
  8
Cut
 62
   179
420
  1842203
370
     9
  0
POLYLINE
  5
12A
330
11F
100
AcDbEntity
  8
Cut
 62
   179
420
  1842203
370
     9
100
AcDb2dPolyline
 66
     1
 10
0.0
 20
0.0
 30
0.0
  0
VERTEX
  5
12B
330
12A
100
AcDbEntity
  8
Cut
 62
   179
420
  1842203
370
     9
100
AcDbVertex
100
AcDb2dVertex
 10
590.4109254107127
 20
33.55825987215091
 30
0.0
  0
VERTEX
  5
12C
330
12A
100
AcDbEntity
  8
Cut
 62
   179
420
  1842203
370
     9
100
AcDbVertex
100
AcDb2dVertex
 10
582.8393804970867
 20
27.66186035125467
 30
0.0
  0
VERTEX
  5
12D
330
12A
100
AcDbEntity
  8
Cut
 62
   179
420
  1842203
370
     9
100
AcDbVertex
100
AcDb2dVertex
 10
583.4042676825073
 20
18.08185570884901
 30
0.0
  0
VERTEX
  5
12E
330
12A
100
AcDbEntity
  8
Cut
 62
   179
420
  1842203
370
     9
100
AcDbVertex
100
AcDb2dVertex
 10
576.7957501478164
 20
22.55448035405068
 30
0.0
  0
VERTEX
  5
12F
330
12A
100
AcDbEntity
  8
Cut
 62
   179
420
  1842203
370
     9
100
AcDbVertex
100
AcDb2dVertex
 10
569.154199616769
 20
7.536939251066341
 30
0.0
  0
VERTEX
  5
130
330
12A
100
AcDbEntity
  8
Cut
 62
   179
420
  1842203
370
     9
100
AcDbVertex
100
AcDb2dVertex
 10
570.3718524015491
 20
5.189738310567469
 30
0.0
  0
VERTEX
  5
131
330
12A
100
AcDbEntity
  8
Cut
 62
   179
420
  1842203
370
     9
100
AcDbVertex
100
AcDb2dVertex
 10
582.1644184351409
 20
3.717459125713158
 30
0.0
  0
VERTEX
  5
132
330
12A
100
AcDbEntity
  8
Cut
 62
   179
420
  1842203
370
     9
100
AcDbVertex
100
AcDb2dVertex
 10
573.8227443178954
 20
-4.747106043149019
 30
0.0
  0
VERTEX
  5
133
330
12A
100
AcDbEntity
  8
Cut
 62
   179
420
  1842203
370
     9
100
AcDbVertex
100
AcDb2dVertex
 10
576.0666211581605
 20
-16.41746653872326
 30
0.0
  0
VERTEX
  5
134
330
12A
100
AcDbEntity
  8
Cut
 62
   179
420
  1842203
370
     9
100
AcDbVertex
100
AcDb2dVertex
 10
565.4386365102276
 20
-11.09976063099267
 30
0.0
  0
VERTEX
  5
135
330
12A
100
AcDbEntity
  8
Cut
 62
   179
420
  1842203
370
     9
100
AcDbVertex
100
AcDb2dVertex
 10
557.4202671908974
 20
-15.52314188850489
 30
0.0
  0
VERTEX
  5
136
330
12A
100
AcDbEntity
  8
Cut
 62
   179
420
  1842203
370
     9
100
AcDbVertex
100
AcDb2dVertex
 10
551.1859960362063
 20
-27.77499272274236
 30
0.0
  0
VERTEX
  5
137
330
12A
100
AcDbEntity
  8
Cut
 62
   179
420
  1842203
370
     9
100
AcDbVertex
100
AcDb2dVertex
 10
555.5000280755445
 20
-27.63113238495752
 30
0.0
  0
VERTEX
  5
138
330
12A
100
AcDbEntity
  8
Cut
 62
   179
420
  1842203
370
     9
100
AcDbVertex
100
AcDb2dVertex
 10
560.8648049114936
 20
-19.25066136672374
 30
0.0
  0
VERTEX
  5
139
330
12A
100
AcDbEntity
  8
Cut
 62
   179
420
  1842203
370
     9
100
AcDbVertex
100
AcDb2dVertex
 10
564.2533841568493
 20
-28.60643651962478
 30
0.0
  0
VERTEX
  5
13A
330
12A
100
AcDbEntity
  8
Cut
 62
   179
420
  1842203
370
     9
100
AcDbVertex
100
AcDb2dVertex
 10
573.8815092970191
 20
-31.11893310278704
 30
0.0
  0
VERTEX
  5
13B
330
12A
100
AcDbEntity
  8
Cut
 62
   179
420
  1842203
370
     9
100
AcDbVertex
100
AcDb2dVertex
 10
566.0307649354779
 20
-37.23276628890437
 30
0.0
  0
VERTEX
  5
13C
330
12A
100
AcDbEntity
  8
Cut
 62
   179
420
  1842203
370
     9
100
AcDbVertex
100
AcDb2dVertex
 10
566.1221036633162
 20
-38.78189462863669
 30
0.0
  0
VERTEX
  5
13D
330
12A
100
AcDbEntity
  8
Cut
 62
   179
420
  1842203
370
     9
100
AcDbVertex
100
AcDb2dVertex
 10
584.6442576525693
 20
-42.46289608913774
 30
0.0
  0
VERTEX
  5
13E
330
12A
100
AcDbEntity
  8
Cut
 62
   179
420
  1842203
370
     9
100
AcDbVertex
100
AcDb2dVertex
 10
582.8395056225278
 20
-31.72964580597154
 30
0.0
  0
VERTEX
  5
13F
330
12A
100
AcDbEntity
  8
Cut
 62
   179
420
  1842203
370
     9
100
AcDbVertex
100
AcDb2dVertex
 10
568.3026155992644
 20
-25.47461767824078
 30
0.0
  0
VERTEX
  5
140
330
12A
100
AcDbEntity
  8
Cut
 62
   179
420
  1842203
370
     9
100
AcDbVertex
100
AcDb2dVertex
 10
582.6121905380609
 20
-17.98628016954686
 30
0.0
  0
VERTEX
  5
141
330
12A
100
AcDbEntity
  8
Cut
 62
   179
420
  1842203
370
     9
100
AcDbVertex
100
AcDb2dVertex
 10
584.670923616947
 20
-2.521840704822609
 30
0.0
  0
VERTEX
  5
142
330
12A
100
AcDbEntity
  8
Cut
 62
   179
420
  1842203
370
     9
100
AcDbVertex
100
AcDb2dVertex
 10
596.0817427514426
 20
-13.1604618401537
 30
0.0
  0
VERTEX
  5
143
330
12A
100
AcDbEntity
  8
Cut
 62
   179
420
  1842203
370
     9
100
AcDbVertex
100
AcDb2dVertex
 10
598.5925918589713
 20
-12.6359534773025
 30
0.0
  0
VERTEX
  5
144
330
12A
100
AcDbEntity
  8
Cut
 62
   179
420
  1842203
370
     9
100
AcDbVertex
100
AcDb2dVertex
 10
597.1857900902725
 20
5.320887888155057
 30
0.0
  0
VERTEX
  5
145
330
12A
100
AcDbEntity
  8
Cut
 62
   179
420
  1842203
370
     9
100
AcDbVertex
100
AcDb2dVertex
 10
590.20768065638
 20
-2.279372133036538
 30
0.0
  0
VERTEX
  5
146
330
12A
100
AcDbEntity
  8
Cut
 62
   179
420
  1842203
370
     9
100
AcDbVertex
100
AcDb2dVertex
 10
588.3438084068125
 20
8.313776932646606
 30
0.0
  0
VERTEX
  5
147
330
12A
100
AcDbEntity
  8
Cut
 62
   179
420
  1842203
370
     9
100
AcDbVertex
100
AcDb2dVertex
 10
578.5607729757669
 20
12.78377943469988
 30
0.0
  0
VERTEX
  5
148
330
12A
100
AcDbEntity
  8
Cut
 62
   179
420
  1842203
370
     9
100
AcDbVertex
100
AcDb2dVertex
 10
588.0594757123666
 20
17.82989207065162
 30
0.0
  0
VERTEX
  5
149
330
12A
100
AcDbEntity
  8
Cut
 62
   179
420
  1842203
370
     9
100
AcDbVertex
100
AcDb2dVertex
 10
589.2876008188141
 20
28.51542150664289
 30
0.0
  0
VERTEX
  5
14A
330
12A
100
AcDbEntity
  8
Cut
 62
   179
420
  1842203
370
     9
100
AcDbVertex
100
AcDb2dVertex
 10
595.8667612156445
 20
22.15735409982486
 30
0.0
  0
VERTEX
  5
14B
330
12A
100
AcDbEntity
  8
Cut
 62
   179
420
  1842203
370
     9
100
AcDbVertex
100
AcDb2dVertex
 10
594.7705688128531
 20
36.1493492366326
 30
0.0
  0
VERTEX
  5
14C
330
12A
100
AcDbEntity
  8
Cut
 62
   179
420
  1842203
370
     9
100
AcDbVertex
100
AcDb2dVertex
 10
593.4411028294235
 20
34.53018407007839
 30
0.0
  0
VERTEX
  5
14D
330
12A
100
AcDbEntity
  8
Cut
 62
   179
420
  1842203
370
     9
100
AcDbVertex
100
AcDb2dVertex
 10
592.2086468865155
 20
39.80691358853137
 30
0.0
  0
VERTEX
  5
14E
330
12A
100
AcDbEntity
  8
Cut
 62
   179
420
  1842203
370
     9
100
AcDbVertex
100
AcDb2dVertex
 10
587.1631264949879
 20
41.78310516477971
 30
0.0
  0
VERTEX
  5
14F
330
12A
100
AcDbEntity
  8
Cut
 62
   179
420
  1842203
370
     9
100
AcDbVertex
100
AcDb2dVertex
 10
591.8007374513869
 20
44.58583750954451
 30
0.0
  0
VERTEX
  5
150
330
12A
100
AcDbEntity
  8
Cut
 62
   179
420
  1842203
370
     9
100
AcDbVertex
100
AcDb2dVertex
 10
592.1210424206777
 20
49.99510804807223
 30
0.0
  0
VERTEX
  5
151
330
12A
100
AcDbEntity
  8
Cut
 62
   179
420
  1842203
370
     9
100
AcDbVertex
100
AcDb2dVertex
 10
593.7995756799899
 20
48.54350680140372
 30
0.0
  0
VERTEX
  5
152
330
12A
100
AcDbEntity
  8
Cut
 62
   179
420
  1842203
370
     9
100
AcDbVertex
100
AcDb2dVertex
 10
593.2952971418365
 20
54.98016914960347
 30
0.0
  0
VERTEX
  5
153
330
12A
100
AcDbEntity
  8
Cut
 62
   179
420
  1842203
370
     9
100
AcDbVertex
100
AcDb2dVertex
 10
583.3345662200525
 20
35.40486334074598
 30
0.0
  0
VERTEX
  5
154
330
12A
100
AcDbEntity
  8
Cut
 62
   179
420
  1842203
370
     9
100
AcDbVertex
100
AcDb2dVertex
 10
590.4109254107127
 20
33.55825987215091
 30
0.0
  0
SEQEND
  5
155
330
12A
100
AcDbEntity
  8
Cut
 62
   179
420
  1842203
370
     9
  0
POLYLINE
  5
156
330
11F
100
AcDbEntity
  8
Cut
 62
   179
420
  1842203
370
     9
100
AcDb2dPolyline
 66
     1
 10
0.0
 20
0.0
 30
0.0
  0
VERTEX
  5
157
330
156
100
AcDbEntity
  8
Cut
 62
   179
420
  1842203
370
     9
100
AcDbVertex
100
AcDb2dVertex
 10
596.4495578376748
 20
-35.39769895973877
 30
0.0
  0
VERTEX
  5
158
330
156
100
AcDbEntity
  8
Cut
 62
   179
420
  1842203
370
     9
100
AcDbVertex
100
AcDb2dVertex
 10
588.9147540901539
 20
-43.31159347244012
 30
0.0
  0
VERTEX
  5
159
330
156
100
AcDbEntity
  8
Cut
 62
   179
420
  1842203
370
     9
100
AcDbVertex
100
AcDb2dVertex
 10
601.1869066960037
 20
-45.75050050732634
 30
0.0
  0
VERTEX
  5
15A
330
156
100
AcDbEntity
  8
Cut
 62
   179
420
  1842203
370
     9
100
AcDbVertex
100
AcDb2dVertex
 10
600.4138666375999
 20
-35.88325395839486
 30
0.0
  0
VERTEX
  5
15B
330
156
100
AcDbEntity
  8
Cut
 62
   179
420
  1842203
370
     9
100
AcDbVertex
100
AcDb2dVertex
 10
596.4495578376748
 20
-35.39769895973877
 30
0.0
  0
SEQEND
  5
15C
330
156
100
AcDbEntity
  8
Cut
 62
   179
420
  1842203
370
     9
  0
ENDBLK
  5
122
330
11F
100
AcDbEntity
  8
0
100
AcDbBlockEnd
  0
BLOCK
  5
19F
330
19D
100
AcDbEntity
  8
0
100
AcDbBlockBegin
  2
block 5
 70
     0
 10
0.0
 20
0.0
 30
0.0
  3
block 5
  1

  0
POLYLINE
  5
1A1
330
19D
100
AcDbEntity
  8
Cut
 62
   179
420
  1842203
370
     9
100
AcDb2dPolyline
 66
     1
 10
0.0
 20
0.0
 30
0.0
  0
VERTEX
  5
1A2
330
1A1
100
AcDbEntity
  8
Cut
 62
   179
420
  1842203
370
     9
100
AcDbVertex
100
AcDb2dVertex
 10
718.6156750191918
 20
16.36233086029932
 30
0.0
  0
VERTEX
  5
1A3
330
1A1
100
AcDbEntity
  8
Cut
 62
   179
420
  1842203
370
     9
100
AcDbVertex
100
AcDb2dVertex
 10
719.2450468555104
 20
11.84146573143267
 30
0.0
  0
VERTEX
  5
1A4
330
1A1
100
AcDbEntity
  8
Cut
 62
   179
420
  1842203
370
     9
100
AcDbVertex
100
AcDb2dVertex
 10
722.0638451849683
 20
13.5743790741857
 30
0.0
  0
VERTEX
  5
1A5
330
1A1
100
AcDbEntity
  8
Cut
 62
   179
420
  1842203
370
     9
100
AcDbVertex
100
AcDb2dVertex
 10
718.8294110394195
 20
16.55791509463019
 30
0.0
  0
VERTEX
  5
1A6
330
1A1
100
AcDbEntity
  8
Cut
 62
   179
420
  1842203
370
     9
100
AcDbVertex
100
AcDb2dVertex
 10
718.6156750191918
 20
16.36233086029932
 30
0.0
  0
SEQEND
  5
1A7
330
1A1
100
AcDbEntity
  8
Cut
 62
   179
420
  1842203
370
     9
  0
POLYLINE
  5
1A8
330
19D
100
AcDbEntity
  8
Cut
 62
   179
420
  1842203
370
     9
100
AcDb2dPolyline
 66
     1
 10
0.0
 20
0.0
 30
0.0
  0
VERTEX
  5
1A9
330
1A8
100
AcDbEntity
  8
Cut
 62
   179
420
  1842203
370
     9
100
AcDbVertex
100
AcDb2dVertex
 10
649.622912430265
 20
-22.57382337962141
 30
0.0
  0
VERTEX
  5
1AA
330
1A8
100
AcDbEntity
  8
Cut
 62
   179
420
  1842203
370
     9
100
AcDbVertex
100
AcDb2dVertex
 10
659.1586207144296
 20
-21.49396820026179
 30
0.0
  0
VERTEX
  5
1AB
330
1A8
100
AcDbEntity
  8
Cut
 62
   179
420
  1842203
370
     9
100
AcDbVertex
100
AcDb2dVertex
 10
663.6749953725786
 20
-13.02650420990553
 30
0.0
  0
VERTEX
  5
1AC
330
1A8
100
AcDbEntity
  8
Cut
 62
   179
420
  1842203
370
     9
100
AcDbVertex
100
AcDb2dVertex
 10
666.9791952453551
 20
-20.29005282087574
 30
0.0
  0
VERTEX
  5
1AD
330
1A8
100
AcDbEntity
  8
Cut
 62
   179
420
  1842203
370
     9
100
AcDbVertex
100
AcDb2dVertex
 10
681.3334999858944
 20
-11.46544117423031
 30
0.0
  0
VERTEX
  5
1AE
330
1A8
100
AcDbEntity
  8
Cut
 62
   179
420
  1842203
370
     9
100
AcDbVertex
100
AcDb2dVertex
 10
681.5193468583745
 20
-8.827735447779409
 30
0.0
  0
VERTEX
  5
1AF
330
1A8
100
AcDbEntity
  8
Cut
 62
   179
420
  1842203
370
     9
100
AcDbVertex
100
AcDb2dVertex
 10
672.2272115719986
 20
-1.419062052730306
 30
0.0
  0
VERTEX
  5
1B0
330
1A8
100
AcDbEntity
  8
Cut
 62
   179
420
  1842203
370
     9
100
AcDbVertex
100
AcDb2dVertex
 10
683.7598376241006
 20
1.44989715204634
 30
0.0
  0
VERTEX
  5
1B1
330
1A8
100
AcDbEntity
  8
Cut
 62
   179
420
  1842203
370
     9
100
AcDbVertex
100
AcDb2dVertex
 10
687.9344842438489
 20
12.57664973180437
 30
0.0
  0
VERTEX
  5
1B2
330
1A8
100
AcDbEntity
  8
Cut
 62
   179
420
  1842203
370
     9
100
AcDbVertex
100
AcDb2dVertex
 10
694.2267934840269
 20
2.49503784561651
 30
0.0
  0
VERTEX
  5
1B3
330
1A8
100
AcDbEntity
  8
Cut
 62
   179
420
  1842203
370
     9
100
AcDbVertex
100
AcDb2dVertex
 10
703.37515524141
 20
2.085128774501577
 30
0.0
  0
VERTEX
  5
1B4
330
1A8
100
AcDbEntity
  8
Cut
 62
   179
420
  1842203
370
     9
100
AcDbVertex
100
AcDb2dVertex
 10
715.0859302175925
 20
9.284554803836503
 30
0.0
  0
VERTEX
  5
1B5
330
1A8
100
AcDbEntity
  8
Cut
 62
   179
420
  1842203
370
     9
100
AcDbVertex
100
AcDb2dVertex
 10
711.3305548958012
 20
11.41263478957639
 30
0.0
  0
VERTEX
  5
1B6
330
1A8
100
AcDbEntity
  8
Cut
 62
   179
420
  1842203
370
     9
100
AcDbVertex
100
AcDb2dVertex
 10
702.3814068392683
 20
7.062246985109285
 30
0.0
  0
VERTEX
  5
1B7
330
1A8
100
AcDbEntity
  8
Cut
 62
   179
420
  1842203
370
     9
100
AcDbVertex
100
AcDb2dVertex
 10
704.3718891055581
 20
16.81165611393825
 30
0.0
  0
VERTEX
  5
1B8
330
1A8
100
AcDbEntity
  8
Cut
 62
   179
420
  1842203
370
     9
100
AcDbVertex
100
AcDb2dVertex
 10
697.4689709075917
 20
23.97846524683603
 30
0.0
  0
VERTEX
  5
1B9
330
1A8
100
AcDbEntity
  8
Cut
 62
   179
420
  1842203
370
     9
100
AcDbVertex
100
AcDb2dVertex
 10
707.3563094025825
 20
25.09814410411162
 30
0.0
  0
VERTEX
  5
1BA
330
1A8
100
AcDbEntity
  8
Cut
 62
   179
420
  1842203
370
     9
100
AcDbVertex
100
AcDb2dVertex
 10
708.0866318950191
 20
26.4673666693684
 30
0.0
  0
VERTEX
  5
1BB
330
1A8
100
AcDbEntity
  8
Cut
 62
   179
420
  1842203
370
     9
100
AcDbVertex
100
AcDb2dVertex
 10
694.2058401897439
 20
39.27141219367498
 30
0.0
  0
VERTEX
  5
1BC
330
1A8
100
AcDbEntity
  8
Cut
 62
   179
420
  1842203
370
     9
100
AcDbVertex
100
AcDb2dVertex
 10
690.1455033984689
 20
29.17322143134278
 30
0.0
  0
VERTEX
  5
1BD
330
1A8
100
AcDbEntity
  8
Cut
 62
   179
420
  1842203
370
     9
100
AcDbVertex
100
AcDb2dVertex
 10
699.2834754603384
 20
16.25253975336468
 30
0.0
  0
VERTEX
  5
1BE
330
1A8
100
AcDbEntity
  8
Cut
 62
   179
420
  1842203
370
     9
100
AcDbVertex
100
AcDb2dVertex
 10
683.1689481491807
 20
17.33010326011242
 30
0.0
  0
VERTEX
  5
1BF
330
1A8
100
AcDbEntity
  8
Cut
 62
   179
420
  1842203
370
     9
100
AcDbVertex
100
AcDb2dVertex
 10
673.3442013986426
 20
5.211455598926222
 30
0.0
  0
VERTEX
  5
1C0
330
1A8
100
AcDbEntity
  8
Cut
 62
   179
420
  1842203
370
     9
100
AcDbVertex
100
AcDb2dVertex
 10
669.1601931553089
 20
20.24079783340002
 30
0.0
  0
VERTEX
  5
1C1
330
1A8
100
AcDbEntity
  8
Cut
 62
   179
420
  1842203
370
     9
100
AcDbVertex
100
AcDb2dVertex
 10
666.744520471964
 20
21.10335087549624
 30
0.0
  0
VERTEX
  5
1C2
330
1A8
100
AcDbEntity
  8
Cut
 62
   179
420
  1842203
370
     9
100
AcDbVertex
100
AcDb2dVertex
 10
658.5758464508405
 20
5.050313537431688
 30
0.0
  0
VERTEX
  5
1C3
330
1A8
100
AcDbEntity
  8
Cut
 62
   179
420
  1842203
370
     9
100
AcDbVertex
100
AcDb2dVertex
 10
668.494266667022
 20
7.893358397503109
 30
0.0
  0
VERTEX
  5
1C4
330
1A8
100
AcDbEntity
  8
Cut
 62
   179
420
  1842203
370
     9
100
AcDbVertex
100
AcDb2dVertex
 10
664.5574621269759
 20
-2.116156920631535
 30
0.0
  0
VERTEX
  5
1C5
330
1A8
100
AcDbEntity
  8
Cut
 62
   179
420
  1842203
370
     9
100
AcDbVertex
100
AcDb2dVertex
 10
670.5712236144559
 20
-11.03374501299968
 30
0.0
  0
VERTEX
  5
1C6
330
1A8
100
AcDbEntity
  8
Cut
 62
   179
420
  1842203
370
     9
100
AcDbVertex
100
AcDb2dVertex
 10
659.8350791239495
 20
-10.38273971968693
 30
0.0
  0
VERTEX
  5
1C7
330
1A8
100
AcDbEntity
  8
Cut
 62
   179
420
  1842203
370
     9
100
AcDbVertex
100
AcDb2dVertex
 10
653.2122810066626
 20
-18.85784300532373
 30
0.0
  0
VERTEX
  5
1C8
330
1A8
100
AcDbEntity
  8
Cut
 62
   179
420
  1842203
370
     9
100
AcDbVertex
100
AcDb2dVertex
 10
650.9168387922502
 20
-10.00113268392535
 30
0.0
  0
VERTEX
  5
1C9
330
1A8
100
AcDbEntity
  8
Cut
 62
   179
420
  1842203
370
     9
100
AcDbVertex
100
AcDb2dVertex
 10
644.5518059269042
 20
-22.50968664973063
 30
0.0
  0
VERTEX
  5
1CA
330
1A8
100
AcDbEntity
  8
Cut
 62
   179
420
  1842203
370
     9
100
AcDbVertex
100
AcDb2dVertex
 10
646.5307635220914
 20
-21.82200760095047
 30
0.0
  0
VERTEX
  5
1CB
330
1A8
100
AcDbEntity
  8
Cut
 62
   179
420
  1842203
370
     9
100
AcDbVertex
100
AcDb2dVertex
 10
644.829089834487
 20
-26.96662894008154
 30
0.0
  0
VERTEX
  5
1CC
330
1A8
100
AcDbEntity
  8
Cut
 62
   179
420
  1842203
370
     9
100
AcDbVertex
100
AcDb2dVertex
 10
648.1023825016728
 20
-31.2849809732424
 30
0.0
  0
VERTEX
  5
1CD
330
1A8
100
AcDbEntity
  8
Cut
 62
   179
420
  1842203
370
     9
100
AcDbVertex
100
AcDb2dVertex
 10
642.6837179590458
 20
-31.25637059502426
 30
0.0
  0
VERTEX
  5
1CE
330
1A8
100
AcDbEntity
  8
Cut
 62
   179
420
  1842203
370
     9
100
AcDbVertex
100
AcDb2dVertex
 10
639.5882258154686
 20
-35.70392401476172
 30
0.0
  0
VERTEX
  5
1CF
330
1A8
100
AcDbEntity
  8
Cut
 62
   179
420
  1842203
370
     9
100
AcDbVertex
100
AcDb2dVertex
 10
638.9136226023272
 20
-33.58979757890916
 30
0.0
  0
VERTEX
  5
1D0
330
1A8
100
AcDbEntity
  8
Cut
 62
   179
420
  1842203
370
     9
100
AcDbVertex
100
AcDb2dVertex
 10
635.9855533211284
 20
-39.34404203958989
 30
0.0
  0
VERTEX
  5
1D1
330
1A8
100
AcDbEntity
  8
Cut
 62
   179
420
  1842203
370
     9
100
AcDbVertex
100
AcDb2dVertex
 10
654.6963329980036
 20
-27.84119535322551
 30
0.0
  0
VERTEX
  5
1D2
330
1A8
100
AcDbEntity
  8
Cut
 62
   179
420
  1842203
370
     9
100
AcDbVertex
100
AcDb2dVertex
 10
649.622912430265
 20
-22.57382337962141
 30
0.0
  0
SEQEND
  5
1D3
330
1A8
100
AcDbEntity
  8
Cut
 62
   179
420
  1842203
370
     9
  0
POLYLINE
  5
1D4
330
19D
100
AcDbEntity
  8
Cut
 62
   179
420
  1842203
370
     9
100
AcDb2dPolyline
 66
     1
 10
0.0
 20
0.0
 30
0.0
  0
VERTEX
  5
1D5
330
1D4
100
AcDbEntity
  8
Cut
 62
   179
420
  1842203
370
     9
100
AcDbVertex
100
AcDb2dVertex
 10
680.4484891124681
 20
39.40337534880607
 30
0.0
  0
VERTEX
  5
1D6
330
1D4
100
AcDbEntity
  8
Cut
 62
   179
420
  1842203
370
     9
100
AcDbVertex
100
AcDb2dVertex
 10
691.0054634105295
 20
42.22353271000183
 30
0.0
  0
VERTEX
  5
1D7
330
1D4
100
AcDbEntity
  8
Cut
 62
   179
420
  1842203
370
     9
100
AcDbVertex
100
AcDb2dVertex
 10
681.8085204310036
 20
50.70706009767415
 30
0.0
  0
VERTEX
  5
1D8
330
1D4
100
AcDbEntity
  8
Cut
 62
   179
420
  1842203
370
     9
100
AcDbVertex
100
AcDb2dVertex
 10
677.3198558897451
 20
41.88594701454765
 30
0.0
  0
VERTEX
  5
1D9
330
1D4
100
AcDbEntity
  8
Cut
 62
   179
420
  1842203
370
     9
100
AcDbVertex
100
AcDb2dVertex
 10
680.4484891124681
 20
39.40337534880607
 30
0.0
  0
SEQEND
  5
1DA
330
1D4
100
AcDbEntity
  8
Cut
 62
   179
420
  1842203
370
     9
  0
ENDBLK
  5
1A0
330
19D
100
AcDbEntity
  8
0
100
AcDbBlockEnd
  0
BLOCK
  5
20E
330
20C
100
AcDbEntity
  8
0
100
AcDbBlockBegin
  2
block 6
 70
     0
 10
0.0
 20
0.0
 30
0.0
  3
block 6
  1

  0
POLYLINE
  5
210
330
20C
100
AcDbEntity
  8
Cut
 62
   179
420
  1842203
370
     9
100
AcDb2dPolyline
 66
     1
 10
0.0
 20
0.0
 30
0.0
  0
VERTEX
  5
211
330
210
100
AcDbEntity
  8
Cut
 62
   179
420
  1842203
370
     9
100
AcDbVertex
100
AcDb2dVertex
 10
742.8018833072177
 20
-46.72694680319802
 30
0.0
  0
VERTEX
  5
212
330
210
100
AcDbEntity
  8
Cut
 62
   179
420
  1842203
370
     9
100
AcDbVertex
100
AcDb2dVertex
 10
740.9802186525413
 20
-50.91214313164745
 30
0.0
  0
VERTEX
  5
213
330
210
100
AcDbEntity
  8
Cut
 62
   179
420
  1842203
370
     9
100
AcDbVertex
100
AcDb2dVertex
 10
744.2890782961034
 20
-50.90436271723561
 30
0.0
  0
VERTEX
  5
214
330
210
100
AcDbEntity
  8
Cut
 62
   179
420
  1842203
370
     9
100
AcDbVertex
100
AcDb2dVertex
 10
743.0862648574206
 20
-46.67159869606504
 30
0.0
  0
VERTEX
  5
215
330
210
100
AcDbEntity
  8
Cut
 62
   179
420
  1842203
370
     9
100
AcDbVertex
100
AcDb2dVertex
 10
742.8018833072177
 20
-46.72694680319802
 30
0.0
  0
SEQEND
  5
216
330
210
100
AcDbEntity
  8
Cut
 62
   179
420
  1842203
370
     9
  0
POLYLINE
  5
217
330
20C
100
AcDbEntity
  8
Cut
 62
   179
420
  1842203
370
     9
100
AcDb2dPolyline
 66
     1
 10
0.0
 20
0.0
 30
0.0
  0
VERTEX
  5
218
330
217
100
AcDbEntity
  8
Cut
 62
   179
420
  1842203
370
     9
100
AcDbVertex
100
AcDb2dVertex
 10
663.6292072193244
 20
-43.94976158634044
 30
0.0
  0
VERTEX
  5
219
330
217
100
AcDbEntity
  8
Cut
 62
   179
420
  1842203
370
     9
100
AcDbVertex
100
AcDb2dVertex
 10
672.3276943923221
 20
-48.00341926678585
 30
0.0
  0
VERTEX
  5
21A
330
217
100
AcDbEntity
  8
Cut
 62
   179
420
  1842203
370
     9
100
AcDbVertex
100
AcDb2dVertex
 10
680.5982958397021
 20
-43.13590057864466
 30
0.0
  0
VERTEX
  5
21B
330
217
100
AcDbEntity
  8
Cut
 62
   179
420
  1842203
370
     9
100
AcDbVertex
100
AcDb2dVertex
 10
679.627688874945
 20
-51.05643069620374
 30
0.0
  0
VERTEX
  5
21C
330
217
100
AcDbEntity
  8
Cut
 62
   179
420
  1842203
370
     9
100
AcDbVertex
100
AcDb2dVertex
 10
696.477563197431
 20
-51.01679971272903
 30
0.0
  0
VERTEX
  5
21D
330
217
100
AcDbEntity
  8
Cut
 62
   179
420
  1842203
370
     9
100
AcDbVertex
100
AcDb2dVertex
 10
698.0122389168978
 20
-48.86347646819812
 30
0.0
  0
VERTEX
  5
21E
330
217
100
AcDbEntity
  8
Cut
 62
   179
420
  1842203
370
     9
100
AcDbVertex
100
AcDb2dVertex
 10
693.9501262615865
 20
-37.6951524923093
 30
0.0
  0
VERTEX
  5
21F
330
217
100
AcDbEntity
  8
Cut
 62
   179
420
  1842203
370
     9
100
AcDbVertex
100
AcDb2dVertex
 10
705.2856249748777
 20
-41.26430638325613
 30
0.0
  0
VERTEX
  5
220
330
217
100
AcDbEntity
  8
Cut
 62
   179
420
  1842203
370
     9
100
AcDbVertex
100
AcDb2dVertex
 10
714.6520769980823
 20
-33.94980887023508
 30
0.0
  0
VERTEX
  5
221
330
217
100
AcDbEntity
  8
Cut
 62
   179
420
  1842203
370
     9
100
AcDbVertex
100
AcDb2dVertex
 10
714.7604679570725
 20
-45.83342385885671
 30
0.0
  0
VERTEX
  5
222
330
217
100
AcDbEntity
  8
Cut
 62
   179
420
  1842203
370
     9
100
AcDbVertex
100
AcDb2dVertex
 10
722.3512720399234
 20
-50.95594683745498
 30
0.0
  0
VERTEX
  5
223
330
217
100
AcDbEntity
  8
Cut
 62
   179
420
  1842203
370
     9
100
AcDbVertex
100
AcDb2dVertex
 10
736.0980149780801
 20
-50.92363141077801
 30
0.0
  0
VERTEX
  5
224
330
217
100
AcDbEntity
  8
Cut
 62
   179
420
  1842203
370
     9
100
AcDbVertex
100
AcDb2dVertex
 10
734.004473015779
 20
-47.14889297145597
 30
0.0
  0
VERTEX
  5
225
330
217
100
AcDbEntity
  8
Cut
 62
   179
420
  1842203
370
     9
100
AcDbVertex
100
AcDb2dVertex
 10
724.1001126626277
 20
-46.19141138837989
 30
0.0
  0
VERTEX
  5
226
330
217
100
AcDbEntity
  8
Cut
 62
   179
420
  1842203
370
     9
100
AcDbVertex
100
AcDb2dVertex
 10
730.8846300824612
 20
-38.91244708061978
 30
0.0
  0
VERTEX
  5
227
330
217
100
AcDbEntity
  8
Cut
 62
   179
420
  1842203
370
     9
100
AcDbVertex
100
AcDb2dVertex
 10
728.7346247984958
 20
-29.19694863359697
 30
0.0
  0
VERTEX
  5
228
330
217
100
AcDbEntity
  8
Cut
 62
   179
420
  1842203
370
     9
100
AcDbVertex
100
AcDb2dVertex
 10
737.753871608027
 20
-33.40008201795761
 30
0.0
  0
VERTEX
  5
229
330
217
100
AcDbEntity
  8
Cut
 62
   179
420
  1842203
370
     9
100
AcDbVertex
100
AcDb2dVertex
 10
739.0912664922636
 20
-32.61298844043232
 30
0.0
  0
VERTEX
  5
22A
330
217
100
AcDbEntity
  8
Cut
 62
   179
420
  1842203
370
     9
100
AcDbVertex
100
AcDb2dVertex
 10
733.9293117108921
 20
-14.44779691959038
 30
0.0
  0
VERTEX
  5
22B
330
217
100
AcDbEntity
  8
Cut
 62
   179
420
  1842203
370
     9
100
AcDbVertex
100
AcDb2dVertex
 10
725.1969940601181
 20
-20.9444437452282
 30
0.0
  0
VERTEX
  5
22C
330
217
100
AcDbEntity
  8
Cut
 62
   179
420
  1842203
370
     9
100
AcDbVertex
100
AcDb2dVertex
 10
726.2518994341114
 20
-36.7347484629688
 30
0.0
  0
VERTEX
  5
22D
330
217
100
AcDbEntity
  8
Cut
 62
   179
420
  1842203
370
     9
100
AcDbVertex
100
AcDb2dVertex
 10
713.0664377166761
 20
-27.40829507107479
 30
0.0
  0
VERTEX
  5
22E
330
217
100
AcDbEntity
  8
Cut
 62
   179
420
  1842203
370
     9
100
AcDbVertex
100
AcDb2dVertex
 10
698.3622821728577
 20
-32.62126731264875
 30
0.0
  0
VERTEX
  5
22F
330
217
100
AcDbEntity
  8
Cut
 62
   179
420
  1842203
370
     9
100
AcDbVertex
100
AcDb2dVertex
 10
702.6338231237273
 20
-17.61656835244692
 30
0.0
  0
VERTEX
  5
230
330
217
100
AcDbEntity
  8
Cut
 62
   179
420
  1842203
370
     9
100
AcDbVertex
100
AcDb2dVertex
 10
701.0229674513605
 20
-15.62041799079844
 30
0.0
  0
VERTEX
  5
231
330
217
100
AcDbEntity
  8
Cut
 62
   179
420
  1842203
370
     9
100
AcDbVertex
100
AcDb2dVertex
 10
685.6790192684327
 20
-25.05389546203292
 30
0.0
  0
VERTEX
  5
232
330
217
100
AcDbEntity
  8
Cut
 62
   179
420
  1842203
370
     9
100
AcDbVertex
100
AcDb2dVertex
 10
695.6238853141743
 20
-27.80300495300303
 30
0.0
  0
VERTEX
  5
233
330
217
100
AcDbEntity
  8
Cut
 62
   179
420
  1842203
370
     9
100
AcDbVertex
100
AcDb2dVertex
 10
687.043218763173
 20
-34.28844930408817
 30
0.0
  0
VERTEX
  5
234
330
217
100
AcDbEntity
  8
Cut
 62
   179
420
  1842203
370
     9
100
AcDbVertex
100
AcDb2dVertex
 10
687.5212613620629
 20
-45.03368917517074
 30
0.0
  0
VERTEX
  5
235
330
217
100
AcDbEntity
  8
Cut
 62
   179
420
  1842203
370
     9
100
AcDbVertex
100
AcDb2dVertex
 10
678.7016696478364
 20
-38.87711476992197
 30
0.0
  0
VERTEX
  5
236
330
217
100
AcDbEntity
  8
Cut
 62
   179
420
  1842203
370
     9
100
AcDbVertex
100
AcDb2dVertex
 10
668.6300487020874
 20
-42.65220180596141
 30
0.0
  0
VERTEX
  5
237
330
217
100
AcDbEntity
  8
Cut
 62
   179
420
  1842203
370
     9
100
AcDbVertex
100
AcDb2dVertex
 10
671.2924214286575
 20
-33.89879423281057
 30
0.0
  0
VERTEX
  5
238
330
217
100
AcDbEntity
  8
Cut
 62
   179
420
  1842203
370
     9
100
AcDbVertex
100
AcDb2dVertex
 10
659.3364010120355
 20
-41.24938206574966
 30
0.0
  0
VERTEX
  5
239
330
217
100
AcDbEntity
  8
Cut
 62
   179
420
  1842203
370
     9
100
AcDbVertex
100
AcDb2dVertex
 10
661.3834624185077
 20
-41.69515693696051
 30
0.0
  0
VERTEX
  5
23A
330
217
100
AcDbEntity
  8
Cut
 62
   179
420
  1842203
370
     9
100
AcDbVertex
100
AcDb2dVertex
 10
657.2477121577701
 20
-45.19635556641702
 30
0.0
  0
VERTEX
  5
23B
330
217
100
AcDbEntity
  8
Cut
 62
   179
420
  1842203
370
     9
100
AcDbVertex
100
AcDb2dVertex
 10
657.7872854998984
 20
-50.58815209223592
 30
0.0
  0
VERTEX
  5
23C
330
217
100
AcDbEntity
  8
Cut
 62
   179
420
  1842203
370
     9
100
AcDbVertex
100
AcDb2dVertex
 10
653.1794356827071
 20
-47.73675523429277
 30
0.0
  0
VERTEX
  5
23D
330
217
100
AcDbEntity
  8
Cut
 62
   179
420
  1842203
370
     9
100
AcDbVertex
100
AcDb2dVertex
 10
648.2182592255847
 20
-49.91609715185487
 30
0.0
  0
VERTEX
  5
23E
330
217
100
AcDbEntity
  8
Cut
 62
   179
420
  1842203
370
     9
100
AcDbVertex
100
AcDb2dVertex
 10
648.7457087326617
 20
-47.76054221183664
 30
0.0
  0
VERTEX
  5
23F
330
217
100
AcDbEntity
  8
Cut
 62
   179
420
  1842203
370
     9
100
AcDbVertex
100
AcDb2dVertex
 10
643.2456462798154
 20
-51.14199634335357
 30
0.0
  0
VERTEX
  5
240
330
217
100
AcDbEntity
  8
Cut
 62
   179
420
  1842203
370
     9
100
AcDbVertex
100
AcDb2dVertex
 10
665.2093911644306
 20
-51.09033736600162
 30
0.0
  0
VERTEX
  5
241
330
217
100
AcDbEntity
  8
Cut
 62
   179
420
  1842203
370
     9
100
AcDbVertex
100
AcDb2dVertex
 10
663.6292072193244
 20
-43.94976158634044
 30
0.0
  0
SEQEND
  5
242
330
217
100
AcDbEntity
  8
Cut
 62
   179
420
  1842203
370
     9
  0
POLYLINE
  5
243
330
20C
100
AcDbEntity
  8
Cut
 62
   179
420
  1842203
370
     9
100
AcDb2dPolyline
 66
     1
 10
0.0
 20
0.0
 30
0.0
  0
VERTEX
  5
244
330
243
100
AcDbEntity
  8
Cut
 62
   179
420
  1842203
370
     9
100
AcDbVertex
100
AcDb2dVertex
 10
722.261474242952
 20
-7.157824919681437
 30
0.0
  0
VERTEX
  5
245
330
243
100
AcDbEntity
  8
Cut
 62
   179
420
  1842203
370
     9
100
AcDbVertex
100
AcDb2dVertex
 10
732.7391634420854
 20
-10.25960230017491
 30
0.0
  0
VERTEX
  5
246
330
243
100
AcDbEntity
  8
Cut
 62
   179
420
  1842203
370
     9
100
AcDbVertex
100
AcDb2dVertex
 10
729.3190268392806
 20
1.776039050587073
 30
0.0
  0
VERTEX
  5
247
330
243
100
AcDbEntity
  8
Cut
 62
   179
420
  1842203
370
     9
100
AcDbVertex
100
AcDb2dVertex
 10
720.8875620779899
 20
-3.407641820037503
 30
0.0
  0
VERTEX
  5
248
330
243
100
AcDbEntity
  8
Cut
 62
   179
420
  1842203
370
     9
100
AcDbVertex
100
AcDb2dVertex
 10
722.261474242952
 20
-7.157824919681437
 30
0.0
  0
SEQEND
  5
249
330
243
100
AcDbEntity
  8
Cut
 62
   179
420
  1842203
370
     9
  0
ENDBLK
  5
20F
330
20C
100
AcDbEntity
  8
0
100
AcDbBlockEnd
  0
BLOCK
  5
27D
330
27B
100
AcDbEntity
  8
0
100
AcDbBlockBegin
  2
block 7
 70
     0
 10
0.0
 20
0.0
 30
0.0
  3
block 7
  1

  0
POLYLINE
  5
27F
330
27B
100
AcDbEntity
  8
Cut
 62
   179
420
  1842203
370
     9
100
AcDb2dPolyline
 66
     1
 10
0.0
 20
0.0
 30
0.0
  0
VERTEX
  5
280
330
27F
100
AcDbEntity
  8
Cut
 62
   179
420
  1842203
370
     9
100
AcDbVertex
100
AcDb2dVertex
 10
665.0675604770386
 20
57.56637394723823
 30
0.0
  0
VERTEX
  5
281
330
27F
100
AcDbEntity
  8
Cut
 62
   179
420
  1842203
370
     9
100
AcDbVertex
100
AcDb2dVertex
 10
667.9632011532537
 20
54.03797551508662
 30
0.0
  0
VERTEX
  5
282
330
27F
100
AcDbEntity
  8
Cut
 62
   179
420
  1842203
370
     9
100
AcDbVertex
100
AcDb2dVertex
 10
669.463796841173
 20
56.98701353739669
 30
0.0
  0
VERTEX
  5
283
330
27F
100
AcDbEntity
  8
Cut
 62
   179
420
  1842203
370
     9
100
AcDbVertex
100
AcDb2dVertex
 10
665.1478551727172
 20
57.84474248157123
 30
0.0
  0
VERTEX
  5
284
330
27F
100
AcDbEntity
  8
Cut
 62
   179
420
  1842203
370
     9
100
AcDbVertex
100
AcDb2dVertex
 10
665.0675604770386
 20
57.56637394723823
 30
0.0
  0
SEQEND
  5
285
330
27F
100
AcDbEntity
  8
Cut
 62
   179
420
  1842203
370
     9
  0
POLYLINE
  5
286
330
27B
100
AcDbEntity
  8
Cut
 62
   179
420
  1842203
370
     9
100
AcDb2dPolyline
 66
     1
 10
0.0
 20
0.0
 30
0.0
  0
VERTEX
  5
287
330
286
100
AcDbEntity
  8
Cut
 62
   179
420
  1842203
370
     9
100
AcDbVertex
100
AcDb2dVertex
 10
626.524158743107
 20
-11.64656978024385
 30
0.0
  0
VERTEX
  5
288
330
286
100
AcDbEntity
  8
Cut
 62
   179
420
  1842203
370
     9
100
AcDbVertex
100
AcDb2dVertex
 10
634.0957036567323
 20
-5.750170259347613
 30
0.0
  0
VERTEX
  5
289
330
286
100
AcDbEntity
  8
Cut
 62
   179
420
  1842203
370
     9
100
AcDbVertex
100
AcDb2dVertex
 10
633.5308164713123
 20
3.82983438305805
 30
0.0
  0
VERTEX
  5
28A
330
286
100
AcDbEntity
  8
Cut
 62
   179
420
  1842203
370
     9
100
AcDbVertex
100
AcDb2dVertex
 10
640.1393340060032
 20
-0.642790262143621
 30
0.0
  0
VERTEX
  5
28B
330
286
100
AcDbEntity
  8
Cut
 62
   179
420
  1842203
370
     9
100
AcDbVertex
100
AcDb2dVertex
 10
647.7808845370507
 20
14.37475084084072
 30
0.0
  0
VERTEX
  5
28C
330
286
100
AcDbEntity
  8
Cut
 62
   179
420
  1842203
370
     9
100
AcDbVertex
100
AcDb2dVertex
 10
646.5632317522707
 20
16.72195178133959
 30
0.0
  0
VERTEX
  5
28D
330
286
100
AcDbEntity
  8
Cut
 62
   179
420
  1842203
370
     9
100
AcDbVertex
100
AcDb2dVertex
 10
634.770665718675
 20
18.1942309661939
 30
0.0
  0
VERTEX
  5
28E
330
286
100
AcDbEntity
  8
Cut
 62
   179
420
  1842203
370
     9
100
AcDbVertex
100
AcDb2dVertex
 10
643.1123398359236
 20
26.65879613505608
 30
0.0
  0
VERTEX
  5
28F
330
286
100
AcDbEntity
  8
Cut
 62
   179
420
  1842203
370
     9
100
AcDbVertex
100
AcDb2dVertex
 10
640.8684629956591
 20
38.32915663063032
 30
0.0
  0
VERTEX
  5
290
330
286
100
AcDbEntity
  8
Cut
 62
   179
420
  1842203
370
     9
100
AcDbVertex
100
AcDb2dVertex
 10
651.4964476435888
 20
33.01145072289973
 30
0.0
  0
VERTEX
  5
291
330
286
100
AcDbEntity
  8
Cut
 62
   179
420
  1842203
370
     9
100
AcDbVertex
100
AcDb2dVertex
 10
659.5148169629223
 20
37.43483198041196
 30
0.0
  0
VERTEX
  5
292
330
286
100
AcDbEntity
  8
Cut
 62
   179
420
  1842203
370
     9
100
AcDbVertex
100
AcDb2dVertex
 10
665.7490881176127
 20
49.68668281464942
 30
0.0
  0
VERTEX
  5
293
330
286
100
AcDbEntity
  8
Cut
 62
   179
420
  1842203
370
     9
100
AcDbVertex
100
AcDb2dVertex
 10
661.4350560782751
 20
49.54282247686459
 30
0.0
  0
VERTEX
  5
294
330
286
100
AcDbEntity
  8
Cut
 62
   179
420
  1842203
370
     9
100
AcDbVertex
100
AcDb2dVertex
 10
656.070279242326
 20
41.1623514586308
 30
0.0
  0
VERTEX
  5
295
330
286
100
AcDbEntity
  8
Cut
 62
   179
420
  1842203
370
     9
100
AcDbVertex
100
AcDb2dVertex
 10
652.6816999969698
 20
50.51812661153216
 30
0.0
  0
VERTEX
  5
296
330
286
100
AcDbEntity
  8
Cut
 62
   179
420
  1842203
370
     9
100
AcDbVertex
100
AcDb2dVertex
 10
643.0535748568007
 20
53.0306231946941
 30
0.0
  0
VERTEX
  5
297
330
286
100
AcDbEntity
  8
Cut
 62
   179
420
  1842203
370
     9
100
AcDbVertex
100
AcDb2dVertex
 10
650.9043192183417
 20
59.14445638081143
 30
0.0
  0
VERTEX
  5
298
330
286
100
AcDbEntity
  8
Cut
 62
   179
420
  1842203
370
     9
100
AcDbVertex
100
AcDb2dVertex
 10
650.8129804904996
 20
60.69358472054342
 30
0.0
  0
VERTEX
  5
299
330
286
100
AcDbEntity
  8
Cut
 62
   179
420
  1842203
370
     9
100
AcDbVertex
100
AcDb2dVertex
 10
632.2908265012503
 20
64.37458618104479
 30
0.0
  0
VERTEX
  5
29A
330
286
100
AcDbEntity
  8
Cut
 62
   179
420
  1842203
370
     9
100
AcDbVertex
100
AcDb2dVertex
 10
634.0955785312913
 20
53.6413358978786
 30
0.0
  0
VERTEX
  5
29B
330
286
100
AcDbEntity
  8
Cut
 62
   179
420
  1842203
370
     9
100
AcDbVertex
100
AcDb2dVertex
 10
648.6324685545546
 20
47.38630777014784
 30
0.0
  0
VERTEX
  5
29C
330
286
100
AcDbEntity
  8
Cut
 62
   179
420
  1842203
370
     9
100
AcDbVertex
100
AcDb2dVertex
 10
634.3228936157581
 20
39.89797026145393
 30
0.0
  0
VERTEX
  5
29D
330
286
100
AcDbEntity
  8
Cut
 62
   179
420
  1842203
370
     9
100
AcDbVertex
100
AcDb2dVertex
 10
632.2641605368727
 20
24.43353079672967
 30
0.0
  0
VERTEX
  5
29E
330
286
100
AcDbEntity
  8
Cut
 62
   179
420
  1842203
370
     9
100
AcDbVertex
100
AcDb2dVertex
 10
620.853341402377
 20
35.07215193206076
 30
0.0
  0
VERTEX
  5
29F
330
286
100
AcDbEntity
  8
Cut
 62
   179
420
  1842203
370
     9
100
AcDbVertex
100
AcDb2dVertex
 10
618.3424922948445
 20
34.54764356920956
 30
0.0
  0
VERTEX
  5
2A0
330
286
100
AcDbEntity
  8
Cut
 62
   179
420
  1842203
370
     9
100
AcDbVertex
100
AcDb2dVertex
 10
619.7492940635473
 20
16.59080220375201
 30
0.0
  0
VERTEX
  5
2A1
330
286
100
AcDbEntity
  8
Cut
 62
   179
420
  1842203
370
     9
100
AcDbVertex
100
AcDb2dVertex
 10
626.7274034974358
 20
24.1910622249436
 30
0.0
  0
VERTEX
  5
2A2
330
286
100
AcDbEntity
  8
Cut
 62
   179
420
  1842203
370
     9
100
AcDbVertex
100
AcDb2dVertex
 10
628.5912757470072
 20
13.59791315926046
 30
0.0
  0
VERTEX
  5
2A3
330
286
100
AcDbEntity
  8
Cut
 62
   179
420
  1842203
370
     9
100
AcDbVertex
100
AcDb2dVertex
 10
638.3743111780528
 20
9.127910657207178
 30
0.0
  0
VERTEX
  5
2A4
330
286
100
AcDbEntity
  8
Cut
 62
   179
420
  1842203
370
     9
100
AcDbVertex
100
AcDb2dVertex
 10
628.8756084414491
 20
4.081798021255439
 30
0.0
  0
VERTEX
  5
2A5
330
286
100
AcDbEntity
  8
Cut
 62
   179
420
  1842203
370
     9
100
AcDbVertex
100
AcDb2dVertex
 10
627.6474833350055
 20
-6.603731414735828
 30
0.0
  0
VERTEX
  5
2A6
330
286
100
AcDbEntity
  8
Cut
 62
   179
420
  1842203
370
     9
100
AcDbVertex
100
AcDb2dVertex
 10
621.068322938172
 20
-0.2456640079178014
 30
0.0
  0
VERTEX
  5
2A7
330
286
100
AcDbEntity
  8
Cut
 62
   179
420
  1842203
370
     9
100
AcDbVertex
100
AcDb2dVertex
 10
622.1645153409665
 20
-14.23765914472554
 30
0.0
  0
VERTEX
  5
2A8
330
286
100
AcDbEntity
  8
Cut
 62
   179
420
  1842203
370
     9
100
AcDbVertex
100
AcDb2dVertex
 10
623.4939813243923
 20
-12.61849397817133
 30
0.0
  0
VERTEX
  5
2A9
330
286
100
AcDbEntity
  8
Cut
 62
   179
420
  1842203
370
     9
100
AcDbVertex
100
AcDb2dVertex
 10
624.7264372673003
 20
-17.89522349662431
 30
0.0
  0
VERTEX
  5
2AA
330
286
100
AcDbEntity
  8
Cut
 62
   179
420
  1842203
370
     9
100
AcDbVertex
100
AcDb2dVertex
 10
629.7719576588279
 20
-19.87141507287232
 30
0.0
  0
VERTEX
  5
2AB
330
286
100
AcDbEntity
  8
Cut
 62
   179
420
  1842203
370
     9
100
AcDbVertex
100
AcDb2dVertex
 10
625.1343467024327
 20
-22.67414741763745
 30
0.0
  0
VERTEX
  5
2AC
330
286
100
AcDbEntity
  8
Cut
 62
   179
420
  1842203
370
     9
100
AcDbVertex
100
AcDb2dVertex
 10
624.8140417331421
 20
-28.08341795616517
 30
0.0
  0
VERTEX
  5
2AD
330
286
100
AcDbEntity
  8
Cut
 62
   179
420
  1842203
370
     9
100
AcDbVertex
100
AcDb2dVertex
 10
623.1355084738266
 20
-26.63181670949666
 30
0.0
  0
VERTEX
  5
2AE
330
286
100
AcDbEntity
  8
Cut
 62
   179
420
  1842203
370
     9
100
AcDbVertex
100
AcDb2dVertex
 10
623.6397870119832
 20
-33.06847905769641
 30
0.0
  0
VERTEX
  5
2AF
330
286
100
AcDbEntity
  8
Cut
 62
   179
420
  1842203
370
     9
100
AcDbVertex
100
AcDb2dVertex
 10
633.6005179337673
 20
-13.49317324883891
 30
0.0
  0
VERTEX
  5
2B0
330
286
100
AcDbEntity
  8
Cut
 62
   179
420
  1842203
370
     9
100
AcDbVertex
100
AcDb2dVertex
 10
626.524158743107
 20
-11.64656978024385
 30
0.0
  0
SEQEND
  5
2B1
330
286
100
AcDbEntity
  8
Cut
 62
   179
420
  1842203
370
     9
  0
POLYLINE
  5
2B2
330
27B
100
AcDbEntity
  8
Cut
 62
   179
420
  1842203
370
     9
100
AcDb2dPolyline
 66
     1
 10
0.0
 20
0.0
 30
0.0
  0
VERTEX
  5
2B3
330
2B2
100
AcDbEntity
  8
Cut
 62
   179
420
  1842203
370
     9
100
AcDbVertex
100
AcDb2dVertex
 10
620.4855263161443
 20
57.30938905164583
 30
0.0
  0
VERTEX
  5
2B4
330
2B2
100
AcDbEntity
  8
Cut
 62
   179
420
  1842203
370
     9
100
AcDbVertex
100
AcDb2dVertex
 10
628.0203300636657
 20
65.22328356434717
 30
0.0
  0
VERTEX
  5
2B5
330
2B2
100
AcDbEntity
  8
Cut
 62
   179
420
  1842203
370
     9
100
AcDbVertex
100
AcDb2dVertex
 10
615.748177457816
 20
67.66219059923309
 30
0.0
  0
VERTEX
  5
2B6
330
2B2
100
AcDbEntity
  8
Cut
 62
   179
420
  1842203
370
     9
100
AcDbVertex
100
AcDb2dVertex
 10
616.5212175162197
 20
57.79494405030192
 30
0.0
  0
VERTEX
  5
2B7
330
2B2
100
AcDbEntity
  8
Cut
 62
   179
420
  1842203
370
     9
100
AcDbVertex
100
AcDb2dVertex
 10
620.4855263161443
 20
57.30938905164583
 30
0.0
  0
SEQEND
  5
2B8
330
2B2
100
AcDbEntity
  8
Cut
 62
   179
420
  1842203
370
     9
  0
ENDBLK
  5
27E
330
27B
100
AcDbEntity
  8
0
100
AcDbBlockEnd
  0
ENDSEC
  0
SECTION
  2
ENTITIES
  0
INSERT
  5
42
330
1F
100
AcDbEntity
  8
Cut
100
AcDbBlockReference
  2
block 2
 10
0.0
 20
0.0
 30
0.0
  0
POLYLINE
  5
7F
330
1F
100
AcDbEntity
  8
Cut
 62
   179
420
  1842203
370
     9
100
AcDb2dPolyline
 66
     1
 10
0.0
 20
0.0
 30
0.0
  0
VERTEX
  5
80
330
7F
100
AcDbEntity
  8
Cut
 62
   179
420
  1842203
370
     9
100
AcDbVertex
100
AcDb2dVertex
 10
507.0139006016507
 20
0.5885726622421246
 30
0.0
  0
VERTEX
  5
81
330
7F
100
AcDbEntity
  8
Cut
 62
   179
420
  1842203
370
     9
100
AcDbVertex
100
AcDb2dVertex
 10
510.8781920477381
 20
1.026204811741301
 30
0.0
  0
VERTEX
  5
82
330
7F
100
AcDbEntity
  8
Cut
 62
   179
420
  1842203
370
     9
100
AcDbVertex
100
AcDb2dVertex
 10
508.1803152376395
 20
3.827266109406926
 30
0.0
  0
VERTEX
  5
83
330
7F
100
AcDbEntity
  8
Cut
 62
   179
420
  1842203
370
     9
100
AcDbVertex
100
AcDb2dVertex
 10
508.9582394519984
 20
7.637670981209649
 30
0.0
  0
VERTEX
  5
84
330
7F
100
AcDbEntity
  8
Cut
 62
   179
420
  1842203
370
     9
100
AcDbVertex
100
AcDb2dVertex
 10
505.4606227897153
 20
5.937406463949772
 30
0.0
  0
VERTEX
  5
85
330
7F
100
AcDbEntity
  8
Cut
 62
   179
420
  1842203
370
     9
100
AcDbVertex
100
AcDb2dVertex
 10
502.0771022490264
 20
7.854708915011447
 30
0.0
  0
VERTEX
  5
86
330
7F
100
AcDbEntity
  8
Cut
 62
   179
420
  1842203
370
     9
100
AcDbVertex
100
AcDb2dVertex
 10
502.6133118610164
 20
4.002865154345998
 30
0.0
  0
VERTEX
  5
87
330
7F
100
AcDbEntity
  8
Cut
 62
   179
420
  1842203
370
     9
100
AcDbVertex
100
AcDb2dVertex
 10
501.0856670946389
 20
2.604941977138533
 30
0.0
  0
VERTEX
  5
88
330
7F
100
AcDbEntity
  8
Cut
 62
   179
420
  1842203
370
     9
100
AcDbVertex
100
AcDb2dVertex
 10
503.0538335999539
 20
0.7894480147949716
 30
0.0
  0
VERTEX
  5
89
330
7F
100
AcDbEntity
  8
Cut
 62
   179
420
  1842203
370
     9
100
AcDbVertex
100
AcDb2dVertex
 10
503.5733297329608
 20
0.6971478169752345
 30
0.0
  0
VERTEX
  5
8A
330
7F
100
AcDbEntity
  8
Cut
 62
   179
420
  1842203
370
     9
100
AcDbVertex
100
AcDb2dVertex
 10
503.8765736417033
 20
0.030528698598947
 30
0.0
  0
VERTEX
  5
8B
330
7F
100
AcDbEntity
  8
Cut
 62
   179
420
  1842203
370
     9
100
AcDbVertex
100
AcDb2dVertex
 10
505.7798404414194
 20
-1.725099889878978
 30
0.0
  0
VERTEX
  5
8C
330
7F
100
AcDbEntity
  8
Cut
 62
   179
420
  1842203
370
     9
100
AcDbVertex
100
AcDb2dVertex
 10
507.0139006016507
 20
0.5885726622421246
 30
0.0
  0
SEQEND
  5
8D
330
7F
100
AcDbEntity
  8
Cut
 62
   179
420
  1842203
370
     9
  0
POLYLINE
  5
8E
330
1F
100
AcDbEntity
  8
Cut
 62
   179
420
  1842203
370
     9
100
AcDb2dPolyline
 66
     1
 10
0.0
 20
0.0
 30
0.0
  0
VERTEX
  5
8F
330
8E
100
AcDbEntity
  8
Cut
 62
   179
420
  1842203
370
     9
100
AcDbVertex
100
AcDb2dVertex
 10
525.0107937348375
 20
23.35719668867882
 30
0.0
  0
VERTEX
  5
90
330
8E
100
AcDbEntity
  8
Cut
 62
   179
420
  1842203
370
     9
100
AcDbVertex
100
AcDb2dVertex
 10
528.0936860755936
 20
18.41774904184018
 30
0.0
  0
VERTEX
  5
91
330
8E
100
AcDbEntity
  8
Cut
 62
   179
420
  1842203
370
     9
100
AcDbVertex
100
AcDb2dVertex
 10
530.1390671750166
 20
23.86932774103407
 30
0.0
  0
VERTEX
  5
92
330
8E
100
AcDbEntity
  8
Cut
 62
   179
420
  1842203
370
     9
100
AcDbVertex
100
AcDb2dVertex
 10
535.7894383329296
 20
25.27493947982753
 30
0.0
  0
VERTEX
  5
93
330
8E
100
AcDbEntity
  8
Cut
 62
   179
420
  1842203
370
     9
100
AcDbVertex
100
AcDb2dVertex
 10
531.2367524722058
 20
28.90477899771284
 30
0.0
  0
VERTEX
  5
94
330
8E
100
AcDbEntity
  8
Cut
 62
   179
420
  1842203
370
     9
100
AcDbVertex
100
AcDb2dVertex
 10
531.368507742169
 20
30.77475921267541
 30
0.0
  0
VERTEX
  5
95
330
8E
100
AcDbEntity
  8
Cut
 62
   179
420
  1842203
370
     9
100
AcDbVertex
100
AcDb2dVertex
 10
519.690707273717
 20
23.59559819256471
 30
0.0
  0
VERTEX
  5
96
330
8E
100
AcDbEntity
  8
Cut
 62
   179
420
  1842203
370
     9
100
AcDbVertex
100
AcDb2dVertex
 10
525.0107937348375
 20
23.35719668867882
 30
0.0
  0
SEQEND
  5
97
330
8E
100
AcDbEntity
  8
Cut
 62
   179
420
  1842203
370
     9
  0
POLYLINE
  5
98
330
1F
100
AcDbEntity
  8
Cut
 62
   179
420
  1842203
370
     9
100
AcDb2dPolyline
 66
     1
 10
0.0
 20
0.0
 30
0.0
  0
VERTEX
  5
99
330
98
100
AcDbEntity
  8
Cut
 62
   179
420
  1842203
370
     9
100
AcDbVertex
100
AcDb2dVertex
 10
556.9143129244369
 20
24.525657317258
 30
0.0
  0
VERTEX
  5
9A
330
98
100
AcDbEntity
  8
Cut
 62
   179
420
  1842203
370
     9
100
AcDbVertex
100
AcDb2dVertex
 10
555.1961415351994
 20
20.15706703339228
 30
0.0
  0
VERTEX
  5
9B
330
98
100
AcDbEntity
  8
Cut
 62
   179
420
  1842203
370
     9
100
AcDbVertex
100
AcDb2dVertex
 10
559.7087637428667
 20
21.45055743465408
 30
0.0
  0
VERTEX
  5
9C
330
98
100
AcDbEntity
  8
Cut
 62
   179
420
  1842203
370
     9
100
AcDbVertex
100
AcDb2dVertex
 10
560.4033934907922
 20
20.87856065746135
 30
0.0
  0
VERTEX
  5
9D
330
98
100
AcDbEntity
  8
Cut
 62
   179
420
  1842203
370
     9
100
AcDbVertex
100
AcDb2dVertex
 10
563.5678998155246
 20
27.09742000271212
 30
0.0
  0
VERTEX
  5
9E
330
98
100
AcDbEntity
  8
Cut
 62
   179
420
  1842203
370
     9
100
AcDbVertex
100
AcDb2dVertex
 10
563.043624058752
 20
27.28829753682125
 30
0.0
  0
VERTEX
  5
9F
330
98
100
AcDbEntity
  8
Cut
 62
   179
420
  1842203
370
     9
100
AcDbVertex
100
AcDb2dVertex
 10
561.8658621669708
 20
31.83254723772502
 30
0.0
  0
VERTEX
  5
A0
330
98
100
AcDbEntity
  8
Cut
 62
   179
420
  1842203
370
     9
100
AcDbVertex
100
AcDb2dVertex
 10
558.9754134286597
 20
28.13362531514009
 30
0.0
  0
VERTEX
  5
A1
330
98
100
AcDbEntity
  8
Cut
 62
   179
420
  1842203
370
     9
100
AcDbVertex
100
AcDb2dVertex
 10
554.2896434663564
 20
28.41772054882942
 30
0.0
  0
VERTEX
  5
A2
330
98
100
AcDbEntity
  8
Cut
 62
   179
420
  1842203
370
     9
100
AcDbVertex
100
AcDb2dVertex
 10
556.9143129244369
 20
24.525657317258
 30
0.0
  0
SEQEND
  5
A3
330
98
100
AcDbEntity
  8
Cut
 62
   179
420
  1842203
370
     9
  0
POLYLINE
  5
A4
330
1F
100
AcDbEntity
  8
Cut
 62
   179
420
  1842203
370
     9
100
AcDb2dPolyline
 66
     1
 10
0.0
 20
0.0
 30
0.0
  0
VERTEX
  5
A5
330
A4
100
AcDbEntity
  8
Cut
 62
   179
420
  1842203
370
     9
100
AcDbVertex
100
AcDb2dVertex
 10
531.3588625006593
 20
-6.726102303014128
 30
0.0
  0
VERTEX
  5
A6
330
A4
100
AcDbEntity
  8
Cut
 62
   179
420
  1842203
370
     9
100
AcDbVertex
100
AcDb2dVertex
 10
527.7758136727225
 20
-15.63728070318971
 30
0.0
  0
VERTEX
  5
A7
330
A4
100
AcDbEntity
  8
Cut
 62
   179
420
  1842203
370
     9
100
AcDbVertex
100
AcDb2dVertex
 10
537.4064123614755
 20
-13.06459372902694
 30
0.0
  0
VERTEX
  5
A8
330
A4
100
AcDbEntity
  8
Cut
 62
   179
420
  1842203
370
     9
100
AcDbVertex
100
AcDb2dVertex
 10
541.4845772811
 20
-16.3006274125744
 30
0.0
  0
VERTEX
  5
A9
330
A4
100
AcDbEntity
  8
Cut
 62
   179
420
  1842203
370
     9
100
AcDbVertex
100
AcDb2dVertex
 10
548.3434545644533
 20
-2.821592484417593
 30
0.0
  0
VERTEX
  5
AA
330
A4
100
AcDbEntity
  8
Cut
 62
   179
420
  1842203
370
     9
100
AcDbVertex
100
AcDb2dVertex
 10
544.4446748226317
 20
-1.429480829249171
 30
0.0
  0
VERTEX
  5
AB
330
A4
100
AcDbEntity
  8
Cut
 62
   179
420
  1842203
370
     9
100
AcDbVertex
100
AcDb2dVertex
 10
541.7987373019923
 20
8.074966745471201
 30
0.0
  0
VERTEX
  5
AC
330
A4
100
AcDbEntity
  8
Cut
 62
   179
420
  1842203
370
     9
100
AcDbVertex
100
AcDb2dVertex
 10
535.585622081408
 20
0.4112376712172049
 30
0.0
  0
VERTEX
  5
AD
330
A4
100
AcDbEntity
  8
Cut
 62
   179
420
  1842203
370
     9
100
AcDbVertex
100
AcDb2dVertex
 10
525.8506678777493
 20
1.062183688304694
 30
0.0
  0
VERTEX
  5
AE
330
A4
100
AcDbEntity
  8
Cut
 62
   179
420
  1842203
370
     9
100
AcDbVertex
100
AcDb2dVertex
 10
531.3588625006593
 20
-6.726102303014128
 30
0.0
  0
SEQEND
  5
AF
330
A4
100
AcDbEntity
  8
Cut
 62
   179
420
  1842203
370
     9
  0
INSERT
  5
B1
330
1F
100
AcDbEntity
  8
Cut
100
AcDbBlockReference
  2
block 3
 10
0.0
 20
0.0
 30
0.0
  0
POLYLINE
  5
EE
330
1F
100
AcDbEntity
  8
Cut
 62
   179
420
  1842203
370
     9
100
AcDb2dPolyline
 66
     1
 10
0.0
 20
0.0
 30
0.0
  0
VERTEX
  5
EF
330
EE
100
AcDbEntity
  8
Cut
 62
   179
420
  1842203
370
     9
100
AcDbVertex
100
AcDb2dVertex
 10
478.9625458764373
 20
59.8704551086808
 30
0.0
  0
VERTEX
  5
F0
330
EE
100
AcDbEntity
  8
Cut
 62
   179
420
  1842203
370
     9
100
AcDbVertex
100
AcDb2dVertex
 10
482.4875723195488
 20
58.22775645891483
 30
0.0
  0
VERTEX
  5
F1
330
EE
100
AcDbEntity
  8
Cut
 62
   179
420
  1842203
370
     9
100
AcDbVertex
100
AcDb2dVertex
 10
481.6473077142022
 20
62.02491843448666
 30
0.0
  0
VERTEX
  5
F2
330
EE
100
AcDbEntity
  8
Cut
 62
   179
420
  1842203
370
     9
100
AcDbVertex
100
AcDb2dVertex
 10
484.298909624461
 20
64.86980132836058
 30
0.0
  0
VERTEX
  5
F3
330
EE
100
AcDbEntity
  8
Cut
 62
   179
420
  1842203
370
     9
100
AcDbVertex
100
AcDb2dVertex
 10
480.4279691644036
 20
65.2440227863432
 30
0.0
  0
VERTEX
  5
F4
330
EE
100
AcDbEntity
  8
Cut
 62
   179
420
  1842203
370
     9
100
AcDbVertex
100
AcDb2dVertex
 10
478.5416988860306
 20
68.64494095281799
 30
0.0
  0
VERTEX
  5
F5
330
EE
100
AcDbEntity
  8
Cut
 62
   179
420
  1842203
370
     9
100
AcDbVertex
100
AcDb2dVertex
 10
476.9895928560943
 20
65.07910472881603
 30
0.0
  0
VERTEX
  5
F6
330
EE
100
AcDbEntity
  8
Cut
 62
   179
420
  1842203
370
     9
100
AcDbVertex
100
AcDb2dVertex
 10
474.9570121503333
 20
64.68349960221627
 30
0.0
  0
VERTEX
  5
F7
330
EE
100
AcDbEntity
  8
Cut
 62
   179
420
  1842203
370
     9
100
AcDbVertex
100
AcDb2dVertex
 10
475.688929084061
 20
62.10784525388569
 30
0.0
  0
VERTEX
  5
F8
330
EE
100
AcDbEntity
  8
Cut
 62
   179
420
  1842203
370
     9
100
AcDbVertex
100
AcDb2dVertex
 10
476.0839678869564
 20
61.75807403875645
 30
0.0
  0
VERTEX
  5
F9
330
EE
100
AcDbEntity
  8
Cut
 62
   179
420
  1842203
370
     9
100
AcDbVertex
100
AcDb2dVertex
 10
475.9948876332928
 20
61.03116095895834
 30
0.0
  0
VERTEX
  5
FA
330
EE
100
AcDbEntity
  8
Cut
 62
   179
420
  1842203
370
     9
100
AcDbVertex
100
AcDb2dVertex
 10
476.7026698236501
 20
58.5404380473098
 30
0.0
  0
VERTEX
  5
FB
330
EE
100
AcDbEntity
  8
Cut
 62
   179
420
  1842203
370
     9
100
AcDbVertex
100
AcDb2dVertex
 10
478.9625458764373
 20
59.8704551086808
 30
0.0
  0
SEQEND
  5
FC
330
EE
100
AcDbEntity
  8
Cut
 62
   179
420
  1842203
370
     9
  0
POLYLINE
  5
FD
330
1F
100
AcDbEntity
  8
Cut
 62
   179
420
  1842203
370
     9
100
AcDb2dPolyline
 66
     1
 10
0.0
 20
0.0
 30
0.0
  0
VERTEX
  5
FE
330
FD
100
AcDbEntity
  8
Cut
 62
   179
420
  1842203
370
     9
100
AcDbVertex
100
AcDb2dVertex
 10
506.1947637906964
 20
69.90562874817853
 30
0.0
  0
VERTEX
  5
FF
330
FD
100
AcDbEntity
  8
Cut
 62
   179
420
  1842203
370
     9
100
AcDbVertex
100
AcDb2dVertex
 10
506.2478688542225
 20
64.08329690493956
 30
0.0
  0
VERTEX
  5
100
330
FD
100
AcDbEntity
  8
Cut
 62
   179
420
  1842203
370
     9
100
AcDbVertex
100
AcDb2dVertex
 10
510.8369868102282
 20
67.66705059921914
 30
0.0
  0
VERTEX
  5
101
330
FD
100
AcDbEntity
  8
Cut
 62
   179
420
  1842203
370
     9
100
AcDbVertex
100
AcDb2dVertex
 10
516.390762985368
 20
65.91833427607492
 30
0.0
  0
VERTEX
  5
102
330
FD
100
AcDbEntity
  8
Cut
 62
   179
420
  1842203
370
     9
100
AcDbVertex
100
AcDb2dVertex
 10
514.400506451475
 20
71.39022265225195
 30
0.0
  0
VERTEX
  5
103
330
FD
100
AcDbEntity
  8
Cut
 62
   179
420
  1842203
370
     9
100
AcDbVertex
100
AcDb2dVertex
 10
515.4885029688135
 20
72.91680348331518
 30
0.0
  0
VERTEX
  5
104
330
FD
100
AcDbEntity
  8
Cut
 62
   179
420
  1842203
370
     9
100
AcDbVertex
100
AcDb2dVertex
 10
501.7804637964714
 20
72.88457332500722
 30
0.0
  0
VERTEX
  5
105
330
FD
100
AcDbEntity
  8
Cut
 62
   179
420
  1842203
370
     9
100
AcDbVertex
100
AcDb2dVertex
 10
506.1947637906964
 20
69.90562874817853
 30
0.0
  0
SEQEND
  5
106
330
FD
100
AcDbEntity
  8
Cut
 62
   179
420
  1842203
370
     9
  0
POLYLINE
  5
107
330
1F
100
AcDbEntity
  8
Cut
 62
   179
420
  1842203
370
     9
100
AcDb2dPolyline
 66
     1
 10
0.0
 20
0.0
 30
0.0
  0
VERTEX
  5
108
330
107
100
AcDbEntity
  8
Cut
 62
   179
420
  1842203
370
     9
100
AcDbVertex
100
AcDb2dVertex
 10
534.0219256280379
 20
54.25798033059809
 30
0.0
  0
VERTEX
  5
109
330
107
100
AcDbEntity
  8
Cut
 62
   179
420
  1842203
370
     9
100
AcDbVertex
100
AcDb2dVertex
 10
530.2769664670931
 20
51.42743711878717
 30
0.0
  0
VERTEX
  5
10A
330
107
100
AcDbEntity
  8
Cut
 62
   179
420
  1842203
370
     9
100
AcDbVertex
100
AcDb2dVertex
 10
534.8016099995099
 20
50.17664636417491
 30
0.0
  0
VERTEX
  5
10B
330
107
100
AcDbEntity
  8
Cut
 62
   179
420
  1842203
370
     9
100
AcDbVertex
100
AcDb2dVertex
 10
535.0957949269405
 20
49.32626643243976
 30
0.0
  0
VERTEX
  5
10C
330
107
100
AcDbEntity
  8
Cut
 62
   179
420
  1842203
370
     9
100
AcDbVertex
100
AcDb2dVertex
 10
541.0399624863023
 20
52.98074093112048
 30
0.0
  0
VERTEX
  5
10D
330
107
100
AcDbEntity
  8
Cut
 62
   179
420
  1842203
370
     9
100
AcDbVertex
100
AcDb2dVertex
 10
540.6922751824816
 20
53.41710412953191
 30
0.0
  0
VERTEX
  5
10E
330
107
100
AcDbEntity
  8
Cut
 62
   179
420
  1842203
370
     9
100
AcDbVertex
100
AcDb2dVertex
 10
542.0582968330322
 20
57.90835264950118
 30
0.0
  0
VERTEX
  5
10F
330
107
100
AcDbEntity
  8
Cut
 62
   179
420
  1842203
370
     9
100
AcDbVertex
100
AcDb2dVertex
 10
537.6626181239614
 20
56.26071009579113
 30
0.0
  0
VERTEX
  5
110
330
107
100
AcDbEntity
  8
Cut
 62
   179
420
  1842203
370
     9
100
AcDbVertex
100
AcDb2dVertex
 10
533.8133058435906
 20
58.94770566885466
 30
0.0
  0
VERTEX
  5
111
330
107
100
AcDbEntity
  8
Cut
 62
   179
420
  1842203
370
     9
100
AcDbVertex
100
AcDb2dVertex
 10
534.0219256280379
 20
54.25798033059809
 30
0.0
  0
SEQEND
  5
112
330
107
100
AcDbEntity
  8
Cut
 62
   179
420
  1842203
370
     9
  0
POLYLINE
  5
113
330
1F
100
AcDbEntity
  8
Cut
 62
   179
420
  1842203
370
     9
100
AcDb2dPolyline
 66
     1
 10
0.0
 20
0.0
 30
0.0
  0
VERTEX
  5
114
330
113
100
AcDbEntity
  8
Cut
 62
   179
420
  1842203
370
     9
100
AcDbVertex
100
AcDb2dVertex
 10
495.9155804543641
 20
40.92906502476019
 30
0.0
  0
VERTEX
  5
115
330
113
100
AcDbEntity
  8
Cut
 62
   179
420
  1842203
370
     9
100
AcDbVertex
100
AcDb2dVertex
 10
488.2097271649473
 20
35.1960758860001
 30
0.0
  0
VERTEX
  5
116
330
113
100
AcDbEntity
  8
Cut
 62
   179
420
  1842203
370
     9
100
AcDbVertex
100
AcDb2dVertex
 10
497.7679973623584
 20
32.36647870544775
 30
0.0
  0
VERTEX
  5
117
330
113
100
AcDbEntity
  8
Cut
 62
   179
420
  1842203
370
     9
100
AcDbVertex
100
AcDb2dVertex
 10
499.5588838380527
 20
27.47811816802382
 30
0.0
  0
VERTEX
  5
118
330
113
100
AcDbEntity
  8
Cut
 62
   179
420
  1842203
370
     9
100
AcDbVertex
100
AcDb2dVertex
 10
512.4425259877651
 20
35.39899849415011
 30
0.0
  0
VERTEX
  5
119
330
113
100
AcDbEntity
  8
Cut
 62
   179
420
  1842203
370
     9
100
AcDbVertex
100
AcDb2dVertex
 10
509.8426783278844
 20
38.62068291089559
 30
0.0
  0
VERTEX
  5
11A
330
113
100
AcDbEntity
  8
Cut
 62
   179
420
  1842203
370
     9
100
AcDbVertex
100
AcDb2dVertex
 10
512.5439692331423
 20
48.10954672638488
 30
0.0
  0
VERTEX
  5
11B
330
113
100
AcDbEntity
  8
Cut
 62
   179
420
  1842203
370
     9
100
AcDbVertex
100
AcDb2dVertex
 10
503.245161973641
 20
44.81292305685775
 30
0.0
  0
VERTEX
  5
11C
330
113
100
AcDbEntity
  8
Cut
 62
   179
420
  1842203
370
     9
100
AcDbVertex
100
AcDb2dVertex
 10
495.2796757403688
 20
50.44711271749539
 30
0.0
  0
VERTEX
  5
11D
330
113
100
AcDbEntity
  8
Cut
 62
   179
420
  1842203
370
     9
100
AcDbVertex
100
AcDb2dVertex
 10
495.9155804543641
 20
40.92906502476019
 30
0.0
  0
SEQEND
  5
11E
330
113
100
AcDbEntity
  8
Cut
 62
   179
420
  1842203
370
     9
  0
INSERT
  5
120
330
1F
100
AcDbEntity
  8
Cut
100
AcDbBlockReference
  2
block 4
 10
0.0
 20
0.0
 30
0.0
  0
POLYLINE
  5
15D
330
1F
100
AcDbEntity
  8
Cut
 62
   179
420
  1842203
370
     9
100
AcDb2dPolyline
 66
     1
 10
0.0
 20
0.0
 30
0.0
  0
VERTEX
  5
15E
330
15D
100
AcDbEntity
  8
Cut
 62
   179
420
  1842203
370
     9
100
AcDbVertex
100
AcDb2dVertex
 10
561.8730742974094
 20
-35.35047663156982
 30
0.0
  0
VERTEX
  5
15F
330
15D
100
AcDbEntity
  8
Cut
 62
   179
420
  1842203
370
     9
100
AcDbVertex
100
AcDb2dVertex
 10
564.9413856472687
 20
-32.96097129805631
 30
0.0
  0
VERTEX
  5
160
330
15D
100
AcDbEntity
  8
Cut
 62
   179
420
  1842203
370
     9
100
AcDbVertex
100
AcDb2dVertex
 10
561.1783876851811
 20
-31.97896823642377
 30
0.0
  0
VERTEX
  5
161
330
15D
100
AcDbEntity
  8
Cut
 62
   179
420
  1842203
370
     9
100
AcDbVertex
100
AcDb2dVertex
 10
559.8539930424143
 20
-28.32242202441523
 30
0.0
  0
VERTEX
  5
162
330
15D
100
AcDbEntity
  8
Cut
 62
   179
420
  1842203
370
     9
100
AcDbVertex
100
AcDb2dVertex
 10
557.7572605669232
 20
-31.59777462698095
 30
0.0
  0
VERTEX
  5
163
330
15D
100
AcDbEntity
  8
Cut
 62
   179
420
  1842203
370
     9
100
AcDbVertex
100
AcDb2dVertex
 10
553.8704305858267
 20
-31.727438176936
 30
0.0
  0
VERTEX
  5
164
330
15D
100
AcDbEntity
  8
Cut
 62
   179
420
  1842203
370
     9
100
AcDbVertex
100
AcDb2dVertex
 10
556.3375382660685
 20
-34.73369844488646
 30
0.0
  0
VERTEX
  5
165
330
15D
100
AcDbEntity
  8
Cut
 62
   179
420
  1842203
370
     9
100
AcDbVertex
100
AcDb2dVertex
 10
555.7636525569986
 20
-36.7233071839473
 30
0.0
  0
VERTEX
  5
166
330
15D
100
AcDbEntity
  8
Cut
 62
   179
420
  1842203
370
     9
100
AcDbVertex
100
AcDb2dVertex
 10
558.3899208464419
 20
-37.24523878081886
 30
0.0
  0
VERTEX
  5
167
330
15D
100
AcDbEntity
  8
Cut
 62
   179
420
  1842203
370
     9
100
AcDbVertex
100
AcDb2dVertex
 10
558.8812618194536
 20
-37.05293795666845
 30
0.0
  0
VERTEX
  5
168
330
15D
100
AcDbEntity
  8
Cut
 62
   179
420
  1842203
370
     9
100
AcDbVertex
100
AcDb2dVertex
 10
559.4877629630864
 20
-37.46341850425182
 30
0.0
  0
VERTEX
  5
169
330
15D
100
AcDbEntity
  8
Cut
 62
   179
420
  1842203
370
     9
100
AcDbVertex
100
AcDb2dVertex
 10
562.0274308361827
 20
-37.968139561828
 30
0.0
  0
VERTEX
  5
16A
330
15D
100
AcDbEntity
  8
Cut
 62
   179
420
  1842203
370
     9
100
AcDbVertex
100
AcDb2dVertex
 10
561.8730742974094
 20
-35.35047663156982
 30
0.0
  0
SEQEND
  5
16B
330
15D
100
AcDbEntity
  8
Cut
 62
   179
420
  1842203
370
     9
  0
POLYLINE
  5
16C
330
1F
100
AcDbEntity
  8
Cut
 62
   179
420
  1842203
370
     9
100
AcDb2dPolyline
 66
     1
 10
0.0
 20
0.0
 30
0.0
  0
VERTEX
  5
16D
330
16C
100
AcDbEntity
  8
Cut
 62
   179
420
  1842203
370
     9
100
AcDbVertex
100
AcDb2dVertex
 10
565.3469668385254
 20
-6.536756408084634
 30
0.0
  0
VERTEX
  5
16E
330
16C
100
AcDbEntity
  8
Cut
 62
   179
420
  1842203
370
     9
100
AcDbVertex
100
AcDb2dVertex
 10
570.5541070780956
 20
-9.14214673699459
 30
0.0
  0
VERTEX
  5
16F
330
16C
100
AcDbEntity
  8
Cut
 62
   179
420
  1842203
370
     9
100
AcDbVertex
100
AcDb2dVertex
 10
569.4547169928226
 20
-3.424224422397258
 30
0.0
  0
VERTEX
  5
170
330
16C
100
AcDbEntity
  8
Cut
 62
   179
420
  1842203
370
     9
100
AcDbVertex
100
AcDb2dVertex
 10
573.5417051446184
 20
0.722939238404756
 30
0.0
  0
VERTEX
  5
171
330
16C
100
AcDbEntity
  8
Cut
 62
   179
420
  1842203
370
     9
100
AcDbVertex
100
AcDb2dVertex
 10
567.7639547288184
 20
1.444246111217417
 30
0.0
  0
VERTEX
  5
172
330
16C
100
AcDbEntity
  8
Cut
 62
   179
420
  1842203
370
     9
100
AcDbVertex
100
AcDb2dVertex
 10
566.9007101367205
 20
3.108275627099249
 30
0.0
  0
VERTEX
  5
173
330
16C
100
AcDbEntity
  8
Cut
 62
   179
420
  1842203
370
     9
100
AcDbVertex
100
AcDb2dVertex
 10
560.6839965744255
 20
-9.109082893382759
 30
0.0
  0
VERTEX
  5
174
330
16C
100
AcDbEntity
  8
Cut
 62
   179
420
  1842203
370
     9
100
AcDbVertex
100
AcDb2dVertex
 10
565.3469668385254
 20
-6.536756408084634
 30
0.0
  0
SEQEND
  5
175
330
16C
100
AcDbEntity
  8
Cut
 62
   179
420
  1842203
370
     9
  0
POLYLINE
  5
176
330
1F
100
AcDbEntity
  8
Cut
 62
   179
420
  1842203
370
     9
100
AcDb2dPolyline
 66
     1
 10
0.0
 20
0.0
 30
0.0
  0
VERTEX
  5
177
330
176
100
AcDbEntity
  8
Cut
 62
   179
420
  1842203
370
     9
100
AcDbVertex
100
AcDb2dVertex
 10
591.954348921169
 20
11.10543890967837
 30
0.0
  0
VERTEX
  5
178
330
176
100
AcDbEntity
  8
Cut
 62
   179
420
  1842203
370
     9
100
AcDbVertex
100
AcDb2dVertex
 10
592.7678433186218
 20
6.482136966651571
 30
0.0
  0
VERTEX
  5
179
330
176
100
AcDbEntity
  8
Cut
 62
   179
420
  1842203
370
     9
100
AcDbVertex
100
AcDb2dVertex
 10
595.942711735735
 20
9.940039096745556
 30
0.0
  0
VERTEX
  5
17A
330
176
100
AcDbEntity
  8
Cut
 62
   179
420
  1842203
370
     9
100
AcDbVertex
100
AcDb2dVertex
 10
596.83373729354
 20
9.814483311695842
 30
0.0
  0
VERTEX
  5
17B
330
176
100
AcDbEntity
  8
Cut
 62
   179
420
  1842203
370
     9
100
AcDbVertex
100
AcDb2dVertex
 10
596.2887554362131
 20
16.77086934256441
 30
0.0
  0
VERTEX
  5
17C
330
176
100
AcDbEntity
  8
Cut
 62
   179
420
  1842203
370
     9
100
AcDbVertex
100
AcDb2dVertex
 10
595.741905100291
 20
16.6601715003574
 30
0.0
  0
VERTEX
  5
17D
330
176
100
AcDbEntity
  8
Cut
 62
   179
420
  1842203
370
     9
100
AcDbVertex
100
AcDb2dVertex
 10
592.3662300477331
 20
19.92240177387461
 30
0.0
  0
VERTEX
  5
17E
330
176
100
AcDbEntity
  8
Cut
 62
   179
420
  1842203
370
     9
100
AcDbVertex
100
AcDb2dVertex
 10
591.8302565863305
 20
15.25877124103352
 30
0.0
  0
VERTEX
  5
17F
330
176
100
AcDbEntity
  8
Cut
 62
   179
420
  1842203
370
     9
100
AcDbVertex
100
AcDb2dVertex
 10
587.6845838919896
 20
13.05637523830493
 30
0.0
  0
VERTEX
  5
180
330
176
100
AcDbEntity
  8
Cut
 62
   179
420
  1842203
370
     9
100
AcDbVertex
100
AcDb2dVertex
 10
591.954348921169
 20
11.10543890967837
 30
0.0
  0
SEQEND
  5
181
330
176
100
AcDbEntity
  8
Cut
 62
   179
420
  1842203
370
     9
  0
POLYLINE
  5
182
330
1F
100
AcDbEntity
  8
Cut
 62
   179
420
  1842203
370
     9
100
AcDb2dPolyline
 66
     1
 10
0.0
 20
0.0
 30
0.0
  0
VERTEX
  5
183
330
182
100
AcDbEntity
  8
Cut
 62
   179
420
  1842203
370
     9
100
AcDbVertex
100
AcDb2dVertex
 10
586.4582222772732
 20
-28.88888715839818
 30
0.0
  0
VERTEX
  5
184
330
182
100
AcDbEntity
  8
Cut
 62
   179
420
  1842203
370
     9
100
AcDbVertex
100
AcDb2dVertex
 10
588.0508373916975
 20
-38.36047184526516
 30
0.0
  0
VERTEX
  5
185
330
182
100
AcDbEntity
  8
Cut
 62
   179
420
  1842203
370
     9
100
AcDbVertex
100
AcDb2dVertex
 10
594.9244619830737
 20
-31.14102350431189
 30
0.0
  0
VERTEX
  5
186
330
182
100
AcDbEntity
  8
Cut
 62
   179
420
  1842203
370
     9
100
AcDbVertex
100
AcDb2dVertex
 10
600.0919320557799
 20
-31.77395016703162
 30
0.0
  0
VERTEX
  5
187
330
182
100
AcDbEntity
  8
Cut
 62
   179
420
  1842203
370
     9
100
AcDbVertex
100
AcDb2dVertex
 10
598.9107004426307
 20
-16.69637502847955
 30
0.0
  0
VERTEX
  5
188
330
182
100
AcDbEntity
  8
Cut
 62
   179
420
  1842203
370
     9
100
AcDbVertex
100
AcDb2dVertex
 10
594.858314458484
 20
-17.54291278378595
 30
0.0
  0
VERTEX
  5
189
330
182
100
AcDbEntity
  8
Cut
 62
   179
420
  1842203
370
     9
100
AcDbVertex
100
AcDb2dVertex
 10
587.6421940124252
 20
-10.81512601756623
 30
0.0
  0
VERTEX
  5
18A
330
182
100
AcDbEntity
  8
Cut
 62
   179
420
  1842203
370
     9
100
AcDbVertex
100
AcDb2dVertex
 10
586.3402437056342
 20
-20.59472056266327
 30
0.0
  0
VERTEX
  5
18B
330
182
100
AcDbEntity
  8
Cut
 62
   179
420
  1842203
370
     9
100
AcDbVertex
100
AcDb2dVertex
 10
577.6956912143202
 20
-25.11852165128659
 30
0.0
  0
VERTEX
  5
18C
330
182
100
AcDbEntity
  8
Cut
 62
   179
420
  1842203
370
     9
100
AcDbVertex
100
AcDb2dVertex
 10
586.4582222772732
 20
-28.88888715839818
 30
0.0
  0
SEQEND
  5
18D
330
182
100
AcDbEntity
  8
Cut
 62
   179
420
  1842203
370
     9
  0
POLYLINE
  5
18E
330
1F
100
AcDbEntity
  8
Cut
 62
   179
420
  1842203
370
     9
100
AcDb2dPolyline
 66
     1
 10
0.0
 20
0.0
 30
0.0
  0
VERTEX
  5
18F
330
18E
100
AcDbEntity
  8
Cut
 62
   179
420
  1842203
370
     9
100
AcDbVertex
100
AcDb2dVertex
 10
603.7036327972097
 20
64.09163053817632
 30
0.0
  0
VERTEX
  5
190
330
18E
100
AcDbEntity
  8
Cut
 62
   179
420
  1842203
370
     9
100
AcDbVertex
100
AcDb2dVertex
 10
598.2782102996492
 20
80.0430039947462
 30
0.0
  0
VERTEX
  5
191
330
18E
100
AcDbEntity
  8
Cut
 62
   179
420
  1842203
370
     9
100
AcDbVertex
100
AcDb2dVertex
 10
463.4848875794413
 20
79.71970331530228
 30
0.0
  0
VERTEX
  5
192
330
18E
100
AcDbEntity
  8
Cut
 62
   179
420
  1842203
370
     9
100
AcDbVertex
100
AcDb2dVertex
 10
459.9989677126912
 20
75.85361716175491
 30
0.0
  0
VERTEX
  5
193
330
18E
100
AcDbEntity
  8
Cut
 62
   179
420
  1842203
370
     9
100
AcDbVertex
100
AcDb2dVertex
 10
478.4719142141494
 20
10.84625871175241
 30
0.0
  0
VERTEX
  5
194
330
18E
100
AcDbEntity
  8
Cut
 62
   179
420
  1842203
370
     9
100
AcDbVertex
100
AcDb2dVertex
 10
483.4539529227583
 20
9.447506881047412
 30
0.0
  0
VERTEX
  5
195
330
18E
100
AcDbEntity
  8
Cut
 62
   179
420
  1842203
370
     9
100
AcDbVertex
100
AcDb2dVertex
 10
537.1519672322504
 20
-40.08506400907596
 30
0.0
  0
VERTEX
  5
196
330
18E
100
AcDbEntity
  8
Cut
 62
   179
420
  1842203
370
     9
100
AcDbVertex
100
AcDb2dVertex
 10
537.1519672322504
 20
-40.08506400907596
 30
0.0
  0
VERTEX
  5
197
330
18E
100
AcDbEntity
  8
Cut
 62
   179
420
  1842203
370
     9
100
AcDbVertex
100
AcDb2dVertex
 10
539.615210504204
 20
-45.07082772717631
 30
0.0
  0
VERTEX
  5
198
330
18E
100
AcDbEntity
  8
Cut
 62
   179
420
  1842203
370
     9
100
AcDbVertex
100
AcDb2dVertex
 10
605.3332490891181
 20
-58.13131390283914
 30
0.0
  0
VERTEX
  5
199
330
18E
100
AcDbEntity
  8
Cut
 62
   179
420
  1842203
370
     9
100
AcDbVertex
100
AcDb2dVertex
 10
608.8050440643786
 20
-54.32504321965442
 30
0.0
  0
VERTEX
  5
19A
330
18E
100
AcDbEntity
  8
Cut
 62
   179
420
  1842203
370
     9
100
AcDbVertex
100
AcDb2dVertex
 10
612.4055994834023
 20
-49.67444422857564
 30
0.0
  0
VERTEX
  5
19B
330
18E
100
AcDbEntity
  8
Cut
 62
   179
420
  1842203
370
     9
100
AcDbVertex
100
AcDb2dVertex
 10
603.7036327972097
 20
64.09163053817632
 30
0.0
  0
SEQEND
  5
19C
330
18E
100
AcDbEntity
  8
Cut
 62
   179
420
  1842203
370
     9
  0
INSERT
  5
19E
330
1F
100
AcDbEntity
  8
Cut
100
AcDbBlockReference
  2
block 5
 10
0.0
 20
0.0
 30
0.0
  0
POLYLINE
  5
1DB
330
1F
100
AcDbEntity
  8
Cut
 62
   179
420
  1842203
370
     9
100
AcDb2dPolyline
 66
     1
 10
0.0
 20
0.0
 30
0.0
  0
VERTEX
  5
1DC
330
1DB
100
AcDbEntity
  8
Cut
 62
   179
420
  1842203
370
     9
100
AcDbVertex
100
AcDb2dVertex
 10
709.9211835521652
 20
21.32311742966494
 30
0.0
  0
VERTEX
  5
1DD
330
1DB
100
AcDbEntity
  8
Cut
 62
   179
420
  1842203
370
     9
100
AcDbVertex
100
AcDb2dVertex
 10
706.0568921060809
 20
20.88548528016576
 30
0.0
  0
VERTEX
  5
1DE
330
1DB
100
AcDbEntity
  8
Cut
 62
   179
420
  1842203
370
     9
100
AcDbVertex
100
AcDb2dVertex
 10
708.7547689161763
 20
18.08442398250013
 30
0.0
  0
VERTEX
  5
1DF
330
1DB
100
AcDbEntity
  8
Cut
 62
   179
420
  1842203
370
     9
100
AcDbVertex
100
AcDb2dVertex
 10
707.9768447018213
 20
14.27401911069741
 30
0.0
  0
VERTEX
  5
1E0
330
1DB
100
AcDbEntity
  8
Cut
 62
   179
420
  1842203
370
     9
100
AcDbVertex
100
AcDb2dVertex
 10
711.4744613641044
 20
15.97428362795729
 30
0.0
  0
VERTEX
  5
1E1
330
1DB
100
AcDbEntity
  8
Cut
 62
   179
420
  1842203
370
     9
100
AcDbVertex
100
AcDb2dVertex
 10
714.8579819047932
 20
14.05698117689561
 30
0.0
  0
VERTEX
  5
1E2
330
1DB
100
AcDbEntity
  8
Cut
 62
   179
420
  1842203
370
     9
100
AcDbVertex
100
AcDb2dVertex
 10
714.3217722927994
 20
17.90882493756106
 30
0.0
  0
VERTEX
  5
1E3
330
1DB
100
AcDbEntity
  8
Cut
 62
   179
420
  1842203
370
     9
100
AcDbVertex
100
AcDb2dVertex
 10
715.8494170591807
 20
19.30674811476853
 30
0.0
  0
VERTEX
  5
1E4
330
1DB
100
AcDbEntity
  8
Cut
 62
   179
420
  1842203
370
     9
100
AcDbVertex
100
AcDb2dVertex
 10
713.8812505538658
 20
21.12224207711209
 30
0.0
  0
VERTEX
  5
1E5
330
1DB
100
AcDbEntity
  8
Cut
 62
   179
420
  1842203
370
     9
100
AcDbVertex
100
AcDb2dVertex
 10
713.3617544208582
 20
21.21454227493183
 30
0.0
  0
VERTEX
  5
1E6
330
1DB
100
AcDbEntity
  8
Cut
 62
   179
420
  1842203
370
     9
100
AcDbVertex
100
AcDb2dVertex
 10
713.0585105121164
 20
21.88116139330812
 30
0.0
  0
VERTEX
  5
1E7
330
1DB
100
AcDbEntity
  8
Cut
 62
   179
420
  1842203
370
     9
100
AcDbVertex
100
AcDb2dVertex
 10
711.1552437123963
 20
23.63678998178604
 30
0.0
  0
VERTEX
  5
1E8
330
1DB
100
AcDbEntity
  8
Cut
 62
   179
420
  1842203
370
     9
100
AcDbVertex
100
AcDb2dVertex
 10
709.9211835521652
 20
21.32311742966494
 30
0.0
  0
SEQEND
  5
1E9
330
1DB
100
AcDbEntity
  8
Cut
 62
   179
420
  1842203
370
     9
  0
POLYLINE
  5
1EA
330
1F
100
AcDbEntity
  8
Cut
 62
   179
420
  1842203
370
     9
100
AcDb2dPolyline
 66
     1
 10
0.0
 20
0.0
 30
0.0
  0
VERTEX
  5
1EB
330
1EA
100
AcDbEntity
  8
Cut
 62
   179
420
  1842203
370
     9
100
AcDbVertex
100
AcDb2dVertex
 10
691.9242904189821
 20
-1.445506596771754
 30
0.0
  0
VERTEX
  5
1EC
330
1EA
100
AcDbEntity
  8
Cut
 62
   179
420
  1842203
370
     9
100
AcDbVertex
100
AcDb2dVertex
 10
688.8413980782261
 20
3.493941050066879
 30
0.0
  0
VERTEX
  5
1ED
330
1EA
100
AcDbEntity
  8
Cut
 62
   179
420
  1842203
370
     9
100
AcDbVertex
100
AcDb2dVertex
 10
686.7960169787992
 20
-1.957637649127009
 30
0.0
  0
VERTEX
  5
1EE
330
1EA
100
AcDbEntity
  8
Cut
 62
   179
420
  1842203
370
     9
100
AcDbVertex
100
AcDb2dVertex
 10
681.14564582089
 20
-3.363249387920474
 30
0.0
  0
VERTEX
  5
1EF
330
1EA
100
AcDbEntity
  8
Cut
 62
   179
420
  1842203
370
     9
100
AcDbVertex
100
AcDb2dVertex
 10
685.6983316816138
 20
-6.993088905805782
 30
0.0
  0
VERTEX
  5
1F0
330
1EA
100
AcDbEntity
  8
Cut
 62
   179
420
  1842203
370
     9
100
AcDbVertex
100
AcDb2dVertex
 10
685.5665764116507
 20
-8.863069120768351
 30
0.0
  0
VERTEX
  5
1F1
330
1EA
100
AcDbEntity
  8
Cut
 62
   179
420
  1842203
370
     9
100
AcDbVertex
100
AcDb2dVertex
 10
697.2443768801021
 20
-1.683908100657651
 30
0.0
  0
VERTEX
  5
1F2
330
1EA
100
AcDbEntity
  8
Cut
 62
   179
420
  1842203
370
     9
100
AcDbVertex
100
AcDb2dVertex
 10
691.9242904189821
 20
-1.445506596771754
 30
0.0
  0
SEQEND
  5
1F3
330
1EA
100
AcDbEntity
  8
Cut
 62
   179
420
  1842203
370
     9
  0
POLYLINE
  5
1F4
330
1F
100
AcDbEntity
  8
Cut
 62
   179
420
  1842203
370
     9
100
AcDb2dPolyline
 66
     1
 10
0.0
 20
0.0
 30
0.0
  0
VERTEX
  5
1F5
330
1F4
100
AcDbEntity
  8
Cut
 62
   179
420
  1842203
370
     9
100
AcDbVertex
100
AcDb2dVertex
 10
660.0207712293828
 20
-2.613967225350937
 30
0.0
  0
VERTEX
  5
1F6
330
1F4
100
AcDbEntity
  8
Cut
 62
   179
420
  1842203
370
     9
100
AcDbVertex
100
AcDb2dVertex
 10
661.7389426186203
 20
1.754623058514783
 30
0.0
  0
VERTEX
  5
1F7
330
1F4
100
AcDbEntity
  8
Cut
 62
   179
420
  1842203
370
     9
100
AcDbVertex
100
AcDb2dVertex
 10
657.226320410953
 20
0.4611326572529862
 30
0.0
  0
VERTEX
  5
1F8
330
1F4
100
AcDbEntity
  8
Cut
 62
   179
420
  1842203
370
     9
100
AcDbVertex
100
AcDb2dVertex
 10
656.5316906630276
 20
1.033129434445713
 30
0.0
  0
VERTEX
  5
1F9
330
1F4
100
AcDbEntity
  8
Cut
 62
   179
420
  1842203
370
     9
100
AcDbVertex
100
AcDb2dVertex
 10
653.367184338295
 20
-5.18572991080506
 30
0.0
  0
VERTEX
  5
1FA
330
1F4
100
AcDbEntity
  8
Cut
 62
   179
420
  1842203
370
     9
100
AcDbVertex
100
AcDb2dVertex
 10
653.8914600950669
 20
-5.376607444914185
 30
0.0
  0
VERTEX
  5
1FB
330
1F4
100
AcDbEntity
  8
Cut
 62
   179
420
  1842203
370
     9
100
AcDbVertex
100
AcDb2dVertex
 10
655.0692219868488
 20
-9.920857145817957
 30
0.0
  0
VERTEX
  5
1FC
330
1F4
100
AcDbEntity
  8
Cut
 62
   179
420
  1842203
370
     9
100
AcDbVertex
100
AcDb2dVertex
 10
657.9596707251599
 20
-6.221935223233031
 30
0.0
  0
VERTEX
  5
1FD
330
1F4
100
AcDbEntity
  8
Cut
 62
   179
420
  1842203
370
     9
100
AcDbVertex
100
AcDb2dVertex
 10
662.6454406874632
 20
-6.506030456922357
 30
0.0
  0
VERTEX
  5
1FE
330
1F4
100
AcDbEntity
  8
Cut
 62
   179
420
  1842203
370
     9
100
AcDbVertex
100
AcDb2dVertex
 10
660.0207712293828
 20
-2.613967225350937
 30
0.0
  0
SEQEND
  5
1FF
330
1F4
100
AcDbEntity
  8
Cut
 62
   179
420
  1842203
370
     9
  0
POLYLINE
  5
200
330
1F
100
AcDbEntity
  8
Cut
 62
   179
420
  1842203
370
     9
100
AcDb2dPolyline
 66
     1
 10
0.0
 20
0.0
 30
0.0
  0
VERTEX
  5
201
330
200
100
AcDbEntity
  8
Cut
 62
   179
420
  1842203
370
     9
100
AcDbVertex
100
AcDb2dVertex
 10
685.5762216531566
 20
28.63779239492119
 30
0.0
  0
VERTEX
  5
202
330
200
100
AcDbEntity
  8
Cut
 62
   179
420
  1842203
370
     9
100
AcDbVertex
100
AcDb2dVertex
 10
689.1592704810972
 20
37.54897079509708
 30
0.0
  0
VERTEX
  5
203
330
200
100
AcDbEntity
  8
Cut
 62
   179
420
  1842203
370
     9
100
AcDbVertex
100
AcDb2dVertex
 10
679.528671792341
 20
34.976283820934
 30
0.0
  0
VERTEX
  5
204
330
200
100
AcDbEntity
  8
Cut
 62
   179
420
  1842203
370
     9
100
AcDbVertex
100
AcDb2dVertex
 10
675.4505068727198
 20
38.21231750448146
 30
0.0
  0
VERTEX
  5
205
330
200
100
AcDbEntity
  8
Cut
 62
   179
420
  1842203
370
     9
100
AcDbVertex
100
AcDb2dVertex
 10
668.5916295893658
 20
24.73328257632465
 30
0.0
  0
VERTEX
  5
206
330
200
100
AcDbEntity
  8
Cut
 62
   179
420
  1842203
370
     9
100
AcDbVertex
100
AcDb2dVertex
 10
672.490409331188
 20
23.34117092115623
 30
0.0
  0
VERTEX
  5
207
330
200
100
AcDbEntity
  8
Cut
 62
   179
420
  1842203
370
     9
100
AcDbVertex
100
AcDb2dVertex
 10
675.1363468518234
 20
13.83672334643586
 30
0.0
  0
VERTEX
  5
208
330
200
100
AcDbEntity
  8
Cut
 62
   179
420
  1842203
370
     9
100
AcDbVertex
100
AcDb2dVertex
 10
681.3494620724116
 20
21.50045242068986
 30
0.0
  0
VERTEX
  5
209
330
200
100
AcDbEntity
  8
Cut
 62
   179
420
  1842203
370
     9
100
AcDbVertex
100
AcDb2dVertex
 10
691.0844162760704
 20
20.84950640360237
 30
0.0
  0
VERTEX
  5
20A
330
200
100
AcDbEntity
  8
Cut
 62
   179
420
  1842203
370
     9
100
AcDbVertex
100
AcDb2dVertex
 10
685.5762216531566
 20
28.63779239492119
 30
0.0
  0
SEQEND
  5
20B
330
200
100
AcDbEntity
  8
Cut
 62
   179
420
  1842203
370
     9
  0
INSERT
  5
20D
330
1F
100
AcDbEntity
  8
Cut
100
AcDbBlockReference
  2
block 6
 10
0.0
 20
0.0
 30
0.0
  0
POLYLINE
  5
24A
330
1F
100
AcDbEntity
  8
Cut
 62
   179
420
  1842203
370
     9
100
AcDb2dPolyline
 66
     1
 10
0.0
 20
0.0
 30
0.0
  0
VERTEX
  5
24B
330
24A
100
AcDbEntity
  8
Cut
 62
   179
420
  1842203
370
     9
100
AcDbVertex
100
AcDb2dVertex
 10
737.9725382773785
 20
-37.95876501677374
 30
0.0
  0
VERTEX
  5
24C
330
24A
100
AcDbEntity
  8
Cut
 62
   179
420
  1842203
370
     9
100
AcDbVertex
100
AcDb2dVertex
 10
734.4475118342709
 20
-36.31606636700777
 30
0.0
  0
VERTEX
  5
24D
330
24A
100
AcDbEntity
  8
Cut
 62
   179
420
  1842203
370
     9
100
AcDbVertex
100
AcDb2dVertex
 10
735.2877764396176
 20
-40.11322834257992
 30
0.0
  0
VERTEX
  5
24E
330
24A
100
AcDbEntity
  8
Cut
 62
   179
420
  1842203
370
     9
100
AcDbVertex
100
AcDb2dVertex
 10
732.6361745293581
 20
-42.95811123645352
 30
0.0
  0
VERTEX
  5
24F
330
24A
100
AcDbEntity
  8
Cut
 62
   179
420
  1842203
370
     9
100
AcDbVertex
100
AcDb2dVertex
 10
736.5071149894161
 20
-43.33233269443613
 30
0.0
  0
VERTEX
  5
250
330
24A
100
AcDbEntity
  8
Cut
 62
   179
420
  1842203
370
     9
100
AcDbVertex
100
AcDb2dVertex
 10
738.393385267789
 20
-46.73325086091093
 30
0.0
  0
VERTEX
  5
251
330
24A
100
AcDbEntity
  8
Cut
 62
   179
420
  1842203
370
     9
100
AcDbVertex
100
AcDb2dVertex
 10
739.9454912977253
 20
-43.16741463690897
 30
0.0
  0
VERTEX
  5
252
330
24A
100
AcDbEntity
  8
Cut
 62
   179
420
  1842203
370
     9
100
AcDbVertex
100
AcDb2dVertex
 10
741.9780720034857
 20
-42.7718095103092
 30
0.0
  0
VERTEX
  5
253
330
24A
100
AcDbEntity
  8
Cut
 62
   179
420
  1842203
370
     9
100
AcDbVertex
100
AcDb2dVertex
 10
741.2461550697548
 20
-40.19615516197863
 30
0.0
  0
VERTEX
  5
254
330
24A
100
AcDbEntity
  8
Cut
 62
   179
420
  1842203
370
     9
100
AcDbVertex
100
AcDb2dVertex
 10
740.8511162668633
 20
-39.84638394684939
 30
0.0
  0
VERTEX
  5
255
330
24A
100
AcDbEntity
  8
Cut
 62
   179
420
  1842203
370
     9
100
AcDbVertex
100
AcDb2dVertex
 10
740.9401965205268
 20
-39.11947086705128
 30
0.0
  0
VERTEX
  5
256
330
24A
100
AcDbEntity
  8
Cut
 62
   179
420
  1842203
370
     9
100
AcDbVertex
100
AcDb2dVertex
 10
740.2324143301689
 20
-36.62874795540274
 30
0.0
  0
VERTEX
  5
257
330
24A
100
AcDbEntity
  8
Cut
 62
   179
420
  1842203
370
     9
100
AcDbVertex
100
AcDb2dVertex
 10
737.9725382773785
 20
-37.95876501677374
 30
0.0
  0
SEQEND
  5
258
330
24A
100
AcDbEntity
  8
Cut
 62
   179
420
  1842203
370
     9
  0
POLYLINE
  5
259
330
1F
100
AcDbEntity
  8
Cut
 62
   179
420
  1842203
370
     9
100
AcDb2dPolyline
 66
     1
 10
0.0
 20
0.0
 30
0.0
  0
VERTEX
  5
25A
330
259
100
AcDbEntity
  8
Cut
 62
   179
420
  1842203
370
     9
100
AcDbVertex
100
AcDb2dVertex
 10
710.7403203631233
 20
-47.99393865627179
 30
0.0
  0
VERTEX
  5
25B
330
259
100
AcDbEntity
  8
Cut
 62
   179
420
  1842203
370
     9
100
AcDbVertex
100
AcDb2dVertex
 10
710.6872152995973
 20
-42.1716068130325
 30
0.0
  0
VERTEX
  5
25C
330
259
100
AcDbEntity
  8
Cut
 62
   179
420
  1842203
370
     9
100
AcDbVertex
100
AcDb2dVertex
 10
706.0980973435915
 20
-45.75536050731207
 30
0.0
  0
VERTEX
  5
25D
330
259
100
AcDbEntity
  8
Cut
 62
   179
420
  1842203
370
     9
100
AcDbVertex
100
AcDb2dVertex
 10
700.5443211684516
 20
-44.00664418416786
 30
0.0
  0
VERTEX
  5
25E
330
259
100
AcDbEntity
  8
Cut
 62
   179
420
  1842203
370
     9
100
AcDbVertex
100
AcDb2dVertex
 10
702.5345777023447
 20
-49.4785325603449
 30
0.0
  0
VERTEX
  5
25F
330
259
100
AcDbEntity
  8
Cut
 62
   179
420
  1842203
370
     9
100
AcDbVertex
100
AcDb2dVertex
 10
701.4465811850023
 20
-51.00511339140812
 30
0.0
  0
VERTEX
  5
260
330
259
100
AcDbEntity
  8
Cut
 62
   179
420
  1842203
370
     9
100
AcDbVertex
100
AcDb2dVertex
 10
715.1546203573477
 20
-50.97288323310016
 30
0.0
  0
VERTEX
  5
261
330
259
100
AcDbEntity
  8
Cut
 62
   179
420
  1842203
370
     9
100
AcDbVertex
100
AcDb2dVertex
 10
710.7403203631233
 20
-47.99393865627179
 30
0.0
  0
SEQEND
  5
262
330
259
100
AcDbEntity
  8
Cut
 62
   179
420
  1842203
370
     9
  0
POLYLINE
  5
263
330
1F
100
AcDbEntity
  8
Cut
 62
   179
420
  1842203
370
     9
100
AcDb2dPolyline
 66
     1
 10
0.0
 20
0.0
 30
0.0
  0
VERTEX
  5
264
330
263
100
AcDbEntity
  8
Cut
 62
   179
420
  1842203
370
     9
100
AcDbVertex
100
AcDb2dVertex
 10
682.9131585257818
 20
-32.34629023869103
 30
0.0
  0
VERTEX
  5
265
330
263
100
AcDbEntity
  8
Cut
 62
   179
420
  1842203
370
     9
100
AcDbVertex
100
AcDb2dVertex
 10
686.6581176867265
 20
-29.51574702688011
 30
0.0
  0
VERTEX
  5
266
330
263
100
AcDbEntity
  8
Cut
 62
   179
420
  1842203
370
     9
100
AcDbVertex
100
AcDb2dVertex
 10
682.1334741543092
 20
-28.26495627226785
 30
0.0
  0
VERTEX
  5
267
330
263
100
AcDbEntity
  8
Cut
 62
   179
420
  1842203
370
     9
100
AcDbVertex
100
AcDb2dVertex
 10
681.8392892268754
 20
-27.4145763405327
 30
0.0
  0
VERTEX
  5
268
330
263
100
AcDbEntity
  8
Cut
 62
   179
420
  1842203
370
     9
100
AcDbVertex
100
AcDb2dVertex
 10
675.8951216675173
 20
-31.06905083921342
 30
0.0
  0
VERTEX
  5
269
330
263
100
AcDbEntity
  8
Cut
 62
   179
420
  1842203
370
     9
100
AcDbVertex
100
AcDb2dVertex
 10
676.242808971338
 20
-31.50541403762485
 30
0.0
  0
VERTEX
  5
26A
330
263
100
AcDbEntity
  8
Cut
 62
   179
420
  1842203
370
     9
100
AcDbVertex
100
AcDb2dVertex
 10
674.8767873207869
 20
-35.99666255759443
 30
0.0
  0
VERTEX
  5
26B
330
263
100
AcDbEntity
  8
Cut
 62
   179
420
  1842203
370
     9
100
AcDbVertex
100
AcDb2dVertex
 10
679.2724660298583
 20
-34.34902000388406
 30
0.0
  0
VERTEX
  5
26C
330
263
100
AcDbEntity
  8
Cut
 62
   179
420
  1842203
370
     9
100
AcDbVertex
100
AcDb2dVertex
 10
683.1217783102252
 20
-37.0360155769476
 30
0.0
  0
VERTEX
  5
26D
330
263
100
AcDbEntity
  8
Cut
 62
   179
420
  1842203
370
     9
100
AcDbVertex
100
AcDb2dVertex
 10
682.9131585257818
 20
-32.34629023869103
 30
0.0
  0
SEQEND
  5
26E
330
263
100
AcDbEntity
  8
Cut
 62
   179
420
  1842203
370
     9
  0
POLYLINE
  5
26F
330
1F
100
AcDbEntity
  8
Cut
 62
   179
420
  1842203
370
     9
100
AcDb2dPolyline
 66
     1
 10
0.0
 20
0.0
 30
0.0
  0
VERTEX
  5
270
330
26F
100
AcDbEntity
  8
Cut
 62
   179
420
  1842203
370
     9
100
AcDbVertex
100
AcDb2dVertex
 10
721.0195036994555
 20
-19.01737493285313
 30
0.0
  0
VERTEX
  5
271
330
26F
100
AcDbEntity
  8
Cut
 62
   179
420
  1842203
370
     9
100
AcDbVertex
100
AcDb2dVertex
 10
728.7253569888717
 20
-13.28438579409304
 30
0.0
  0
VERTEX
  5
272
330
26F
100
AcDbEntity
  8
Cut
 62
   179
420
  1842203
370
     9
100
AcDbVertex
100
AcDb2dVertex
 10
719.1670867914613
 20
-10.45478861354069
 30
0.0
  0
VERTEX
  5
273
330
26F
100
AcDbEntity
  8
Cut
 62
   179
420
  1842203
370
     9
100
AcDbVertex
100
AcDb2dVertex
 10
717.3762003157631
 20
-5.566428076116756
 30
0.0
  0
VERTEX
  5
274
330
26F
100
AcDbEntity
  8
Cut
 62
   179
420
  1842203
370
     9
100
AcDbVertex
100
AcDb2dVertex
 10
704.4925581660546
 20
-13.48730840224305
 30
0.0
  0
VERTEX
  5
275
330
26F
100
AcDbEntity
  8
Cut
 62
   179
420
  1842203
370
     9
100
AcDbVertex
100
AcDb2dVertex
 10
707.0924058259353
 20
-16.70899281898852
 30
0.0
  0
VERTEX
  5
276
330
26F
100
AcDbEntity
  8
Cut
 62
   179
420
  1842203
370
     9
100
AcDbVertex
100
AcDb2dVertex
 10
704.3911149206773
 20
-26.19785663447782
 30
0.0
  0
VERTEX
  5
277
330
26F
100
AcDbEntity
  8
Cut
 62
   179
420
  1842203
370
     9
100
AcDbVertex
100
AcDb2dVertex
 10
713.6899221801787
 20
-22.90123296495069
 30
0.0
  0
VERTEX
  5
278
330
26F
100
AcDbEntity
  8
Cut
 62
   179
420
  1842203
370
     9
100
AcDbVertex
100
AcDb2dVertex
 10
721.6554084134509
 20
-28.53542262558833
 30
0.0
  0
VERTEX
  5
279
330
26F
100
AcDbEntity
  8
Cut
 62
   179
420
  1842203
370
     9
100
AcDbVertex
100
AcDb2dVertex
 10
721.0195036994555
 20
-19.01737493285313
 30
0.0
  0
SEQEND
  5
27A
330
26F
100
AcDbEntity
  8
Cut
 62
   179
420
  1842203
370
     9
  0
INSERT
  5
27C
330
1F
100
AcDbEntity
  8
Cut
100
AcDbBlockReference
  2
block 7
 10
0.0
 20
0.0
 30
0.0
  0
POLYLINE
  5
2B9
330
1F
100
AcDbEntity
  8
Cut
 62
   179
420
  1842203
370
     9
100
AcDb2dPolyline
 66
     1
 10
0.0
 20
0.0
 30
0.0
  0
VERTEX
  5
2BA
330
2B9
100
AcDbEntity
  8
Cut
 62
   179
420
  1842203
370
     9
100
AcDbVertex
100
AcDb2dVertex
 10
655.0620098564103
 20
57.2621667234772
 30
0.0
  0
VERTEX
  5
2BB
330
2B9
100
AcDbEntity
  8
Cut
 62
   179
420
  1842203
370
     9
100
AcDbVertex
100
AcDb2dVertex
 10
651.993698506551
 20
54.87266138996337
 30
0.0
  0
VERTEX
  5
2BC
330
2B9
100
AcDbEntity
  8
Cut
 62
   179
420
  1842203
370
     9
100
AcDbVertex
100
AcDb2dVertex
 10
655.7566964686386
 20
53.89065832833084
 30
0.0
  0
VERTEX
  5
2BD
330
2B9
100
AcDbEntity
  8
Cut
 62
   179
420
  1842203
370
     9
100
AcDbVertex
100
AcDb2dVertex
 10
657.0810911114053
 20
50.23411211632261
 30
0.0
  0
VERTEX
  5
2BE
330
2B9
100
AcDbEntity
  8
Cut
 62
   179
420
  1842203
370
     9
100
AcDbVertex
100
AcDb2dVertex
 10
659.1778235868966
 20
53.50946471888801
 30
0.0
  0
VERTEX
  5
2BF
330
2B9
100
AcDbEntity
  8
Cut
 62
   179
420
  1842203
370
     9
100
AcDbVertex
100
AcDb2dVertex
 10
663.0646535679922
 20
53.63912826884306
 30
0.0
  0
VERTEX
  5
2C0
330
2B9
100
AcDbEntity
  8
Cut
 62
   179
420
  1842203
370
     9
100
AcDbVertex
100
AcDb2dVertex
 10
660.5975458877474
 20
56.64538853679353
 30
0.0
  0
VERTEX
  5
2C1
330
2B9
100
AcDbEntity
  8
Cut
 62
   179
420
  1842203
370
     9
100
AcDbVertex
100
AcDb2dVertex
 10
661.1714315968178
 20
58.63499727585436
 30
0.0
  0
VERTEX
  5
2C2
330
2B9
100
AcDbEntity
  8
Cut
 62
   179
420
  1842203
370
     9
100
AcDbVertex
100
AcDb2dVertex
 10
658.545163307374
 20
59.15692887272624
 30
0.0
  0
VERTEX
  5
2C3
330
2B9
100
AcDbEntity
  8
Cut
 62
   179
420
  1842203
370
     9
100
AcDbVertex
100
AcDb2dVertex
 10
658.0538223343661
 20
58.96462804857551
 30
0.0
  0
VERTEX
  5
2C4
330
2B9
100
AcDbEntity
  8
Cut
 62
   179
420
  1842203
370
     9
100
AcDbVertex
100
AcDb2dVertex
 10
657.4473211907326
 20
59.37510859615888
 30
0.0
  0
VERTEX
  5
2C5
330
2B9
100
AcDbEntity
  8
Cut
 62
   179
420
  1842203
370
     9
100
AcDbVertex
100
AcDb2dVertex
 10
654.9076533176369
 20
59.87982965373506
 30
0.0
  0
VERTEX
  5
2C6
330
2B9
100
AcDbEntity
  8
Cut
 62
   179
420
  1842203
370
     9
100
AcDbVertex
100
AcDb2dVertex
 10
655.0620098564103
 20
57.2621667234772
 30
0.0
  0
SEQEND
  5
2C7
330
2B9
100
AcDbEntity
  8
Cut
 62
   179
420
  1842203
370
     9
  0
POLYLINE
  5
2C8
330
1F
100
AcDbEntity
  8
Cut
 62
   179
420
  1842203
370
     9
100
AcDb2dPolyline
 66
     1
 10
0.0
 20
0.0
 30
0.0
  0
VERTEX
  5
2C9
330
2C8
100
AcDbEntity
  8
Cut
 62
   179
420
  1842203
370
     9
100
AcDbVertex
100
AcDb2dVertex
 10
651.5881173152943
 20
28.4484464999917
 30
0.0
  0
VERTEX
  5
2CA
330
2C8
100
AcDbEntity
  8
Cut
 62
   179
420
  1842203
370
     9
100
AcDbVertex
100
AcDb2dVertex
 10
646.3809770757202
 20
31.05383682890165
 30
0.0
  0
VERTEX
  5
2CB
330
2C8
100
AcDbEntity
  8
Cut
 62
   179
420
  1842203
370
     9
100
AcDbVertex
100
AcDb2dVertex
 10
647.4803671609972
 20
25.33591451430432
 30
0.0
  0
VERTEX
  5
2CC
330
2C8
100
AcDbEntity
  8
Cut
 62
   179
420
  1842203
370
     9
100
AcDbVertex
100
AcDb2dVertex
 10
643.3933790092007
 20
21.18875085350231
 30
0.0
  0
VERTEX
  5
2CD
330
2C8
100
AcDbEntity
  8
Cut
 62
   179
420
  1842203
370
     9
100
AcDbVertex
100
AcDb2dVertex
 10
649.1711294250013
 20
20.46744398068964
 30
0.0
  0
VERTEX
  5
2CE
330
2C8
100
AcDbEntity
  8
Cut
 62
   179
420
  1842203
370
     9
100
AcDbVertex
100
AcDb2dVertex
 10
650.0343740170991
 20
18.80341446480781
 30
0.0
  0
VERTEX
  5
2CF
330
2C8
100
AcDbEntity
  8
Cut
 62
   179
420
  1842203
370
     9
100
AcDbVertex
100
AcDb2dVertex
 10
656.2510875793942
 20
31.02077298528982
 30
0.0
  0
VERTEX
  5
2D0
330
2C8
100
AcDbEntity
  8
Cut
 62
   179
420
  1842203
370
     9
100
AcDbVertex
100
AcDb2dVertex
 10
651.5881173152943
 20
28.4484464999917
 30
0.0
  0
SEQEND
  5
2D1
330
2C8
100
AcDbEntity
  8
Cut
 62
   179
420
  1842203
370
     9
  0
POLYLINE
  5
2D2
330
1F
100
AcDbEntity
  8
Cut
 62
   179
420
  1842203
370
     9
100
AcDb2dPolyline
 66
     1
 10
0.0
 20
0.0
 30
0.0
  0
VERTEX
  5
2D3
330
2D2
100
AcDbEntity
  8
Cut
 62
   179
420
  1842203
370
     9
100
AcDbVertex
100
AcDb2dVertex
 10
624.9807352326508
 20
10.80625118222869
 30
0.0
  0
VERTEX
  5
2D4
330
2D2
100
AcDbEntity
  8
Cut
 62
   179
420
  1842203
370
     9
100
AcDbVertex
100
AcDb2dVertex
 10
624.1672408351978
 20
15.42955312525549
 30
0.0
  0
VERTEX
  5
2D5
330
2D2
100
AcDbEntity
  8
Cut
 62
   179
420
  1842203
370
     9
100
AcDbVertex
100
AcDb2dVertex
 10
620.9923724180846
 20
11.97165099516151
 30
0.0
  0
VERTEX
  5
2D6
330
2D2
100
AcDbEntity
  8
Cut
 62
   179
420
  1842203
370
     9
100
AcDbVertex
100
AcDb2dVertex
 10
620.1013468602796
 20
12.09720678021122
 30
0.0
  0
VERTEX
  5
2D7
330
2D2
100
AcDbEntity
  8
Cut
 62
   179
420
  1842203
370
     9
100
AcDbVertex
100
AcDb2dVertex
 10
620.6463287176066
 20
5.140820749342653
 30
0.0
  0
VERTEX
  5
2D8
330
2D2
100
AcDbEntity
  8
Cut
 62
   179
420
  1842203
370
     9
100
AcDbVertex
100
AcDb2dVertex
 10
621.1931790535288
 20
5.251518591549665
 30
0.0
  0
VERTEX
  5
2D9
330
2D2
100
AcDbEntity
  8
Cut
 62
   179
420
  1842203
370
     9
100
AcDbVertex
100
AcDb2dVertex
 10
624.5688541060828
 20
1.989288318032451
 30
0.0
  0
VERTEX
  5
2DA
330
2D2
100
AcDbEntity
  8
Cut
 62
   179
420
  1842203
370
     9
100
AcDbVertex
100
AcDb2dVertex
 10
625.1048275674891
 20
6.652918850873546
 30
0.0
  0
VERTEX
  5
2DB
330
2D2
100
AcDbEntity
  8
Cut
 62
   179
420
  1842203
370
     9
100
AcDbVertex
100
AcDb2dVertex
 10
629.25050026183
 20
8.855314853602128
 30
0.0
  0
VERTEX
  5
2DC
330
2D2
100
AcDbEntity
  8
Cut
 62
   179
420
  1842203
370
     9
100
AcDbVertex
100
AcDb2dVertex
 10
624.9807352326508
 20
10.80625118222869
 30
0.0
  0
SEQEND
  5
2DD
330
2D2
100
AcDbEntity
  8
Cut
 62
   179
420
  1842203
370
     9
  0
POLYLINE
  5
2DE
330
1F
100
AcDbEntity
  8
Cut
 62
   179
420
  1842203
370
     9
100
AcDb2dPolyline
 66
     1
 10
0.0
 20
0.0
 30
0.0
  0
VERTEX
  5
2DF
330
2DE
100
AcDbEntity
  8
Cut
 62
   179
420
  1842203
370
     9
100
AcDbVertex
100
AcDb2dVertex
 10
630.4768618765465
 20
50.80057725030525
 30
0.0
  0
VERTEX
  5
2E0
330
2DE
100
AcDbEntity
  8
Cut
 62
   179
420
  1842203
370
     9
100
AcDbVertex
100
AcDb2dVertex
 10
628.8842467621221
 20
60.27216193717222
 30
0.0
  0
VERTEX
  5
2E1
330
2DE
100
AcDbEntity
  8
Cut
 62
   179
420
  1842203
370
     9
100
AcDbVertex
100
AcDb2dVertex
 10
622.0106221707422
 20
53.05271359621895
 30
0.0
  0
VERTEX
  5
2E2
330
2DE
100
AcDbEntity
  8
Cut
 62
   179
420
  1842203
370
     9
100
AcDbVertex
100
AcDb2dVertex
 10
616.8431520980365
 20
53.68564025893868
 30
0.0
  0
VERTEX
  5
2E3
330
2DE
100
AcDbEntity
  8
Cut
 62
   179
420
  1842203
370
     9
100
AcDbVertex
100
AcDb2dVertex
 10
618.024383711189
 20
38.60806512038661
 30
0.0
  0
VERTEX
  5
2E4
330
2DE
100
AcDbEntity
  8
Cut
 62
   179
420
  1842203
370
     9
100
AcDbVertex
100
AcDb2dVertex
 10
622.0767696953357
 20
39.45460287569301
 30
0.0
  0
VERTEX
  5
2E5
330
2DE
100
AcDbEntity
  8
Cut
 62
   179
420
  1842203
370
     9
100
AcDbVertex
100
AcDb2dVertex
 10
629.2928901413945
 20
32.72681610947329
 30
0.0
  0
VERTEX
  5
2E6
330
2DE
100
AcDbEntity
  8
Cut
 62
   179
420
  1842203
370
     9
100
AcDbVertex
100
AcDb2dVertex
 10
630.5948404481854
 20
42.50641065457032
 30
0.0
  0
VERTEX
  5
2E7
330
2DE
100
AcDbEntity
  8
Cut
 62
   179
420
  1842203
370
     9
100
AcDbVertex
100
AcDb2dVertex
 10
639.2393929394996
 20
47.03021174319365
 30
0.0
  0
VERTEX
  5
2E8
330
2DE
100
AcDbEntity
  8
Cut
 62
   179
420
  1842203
370
     9
100
AcDbVertex
100
AcDb2dVertex
 10
630.4768618765465
 20
50.80057725030525
 30
0.0
  0
SEQEND
  5
2E9
330
2DE
100
AcDbEntity
  8
Cut
 62
   179
420
  1842203
370
     9
  0
POLYLINE
  5
2EA
330
1F
100
AcDbEntity
  8
Cut
 62
   179
420
  1842203
370
     9
100
AcDb2dPolyline
 66
     1
 10
0.0
 20
0.0
 30
0.0
  0
VERTEX
  5
2EB
330
2EA
100
AcDbEntity
  8
Cut
 62
   179
420
  1842203
370
     9
100
AcDbVertex
100
AcDb2dVertex
 10
613.231416746852
 20
-42.17994044626926
 30
0.0
  0
VERTEX
  5
2EC
330
2EA
100
AcDbEntity
  8
Cut
 62
   179
420
  1842203
370
     9
100
AcDbVertex
100
AcDb2dVertex
 10
618.6569253717978
 20
-58.13131390283914
 30
0.0
  0
VERTEX
  5
2ED
330
2EA
100
AcDbEntity
  8
Cut
 62
   179
420
  1842203
370
     9
100
AcDbVertex
100
AcDb2dVertex
 10
753.4501619646172
 20
-57.80801322339522
 30
0.0
  0
VERTEX
  5
2EE
330
2EA
100
AcDbEntity
  8
Cut
 62
   179
420
  1842203
370
     9
100
AcDbVertex
100
AcDb2dVertex
 10
733.4810966213035
 20
12.46418321085965
 30
0.0
  0
VERTEX
  5
2EF
330
2EA
100
AcDbEntity
  8
Cut
 62
   179
420
  1842203
370
     9
100
AcDbVertex
100
AcDb2dVertex
 10
679.7831253755043
 20
61.99675410098302
 30
0.0
  0
VERTEX
  5
2F0
330
2EA
100
AcDbEntity
  8
Cut
 62
   179
420
  1842203
370
     9
100
AcDbVertex
100
AcDb2dVertex
 10
677.3198390398577
 20
66.98251781908368
 30
0.0
  0
VERTEX
  5
2F1
330
2EA
100
AcDbEntity
  8
Cut
 62
   179
420
  1842203
370
     9
100
AcDbVertex
100
AcDb2dVertex
 10
611.6018865823289
 20
80.0430039947462
 30
0.0
  0
VERTEX
  5
2F2
330
2EA
100
AcDbEntity
  8
Cut
 62
   179
420
  1842203
370
     9
100
AcDbVertex
100
AcDb2dVertex
 10
608.1300054796799
 20
76.2367333115618
 30
0.0
  0
VERTEX
  5
2F3
330
2EA
100
AcDbEntity
  8
Cut
 62
   179
420
  1842203
370
     9
100
AcDbVertex
100
AcDb2dVertex
 10
604.5294500606594
 20
71.58613432048237
 30
0.0
  0
VERTEX
  5
2F4
330
2EA
100
AcDbEntity
  8
Cut
 62
   179
420
  1842203
370
     9
100
AcDbVertex
100
AcDb2dVertex
 10
613.231416746852
 20
-42.17994044626926
 30
0.0
  0
SEQEND
  5
2F5
330
2EA
100
AcDbEntity
  8
Cut
 62
   179
420
  1842203
370
     9
  0
POLYLINE
  5
2F7
330
1F
100
AcDbEntity
  8
Ritzen
 62
    12
420
 14877971
370
     9
100
AcDb2dPolyline
 66
     1
 10
0.0
 20
0.0
 30
0.0
  0
VERTEX
  5
2F8
330
2F7
100
AcDbEntity
  8
Ritzen
 62
    12
420
 14877971
370
     9
100
AcDbVertex
100
AcDb2dVertex
 10
598.2782102996492
 20
80.0430039947462
 30
0.0
  0
VERTEX
  5
2F9
330
2F7
100
AcDbEntity
  8
Ritzen
 62
    12
420
 14877971
370
     9
100
AcDbVertex
100
AcDb2dVertex
 10
483.4539529227583
 20
9.447506881047412
 30
0.0
  0
SEQEND
  5
2FA
330
2F7
100
AcDbEntity
  8
Ritzen
 62
    12
420
 14877971
370
     9
  0
POLYLINE
  5
2FB
330
1F
100
AcDbEntity
  8
Ritzen
 62
    12
420
 14877971
370
     9
100
AcDb2dPolyline
 66
     1
 10
0.0
 20
0.0
 30
0.0
  0
VERTEX
  5
2FC
330
2FB
100
AcDbEntity
  8
Ritzen
 62
    12
420
 14877971
370
     9
100
AcDbVertex
100
AcDb2dVertex
 10
537.1519672322504
 20
-40.08506400907596
 30
0.0
  0
VERTEX
  5
2FD
330
2FB
100
AcDbEntity
  8
Ritzen
 62
    12
420
 14877971
370
     9
100
AcDbVertex
100
AcDb2dVertex
 10
598.2782102996492
 20
80.0430039947462
 30
0.0
  0
SEQEND
  5
2FE
330
2FB
100
AcDbEntity
  8
Ritzen
 62
    12
420
 14877971
370
     9
  0
POLYLINE
  5
2FF
330
1F
100
AcDbEntity
  8
Ritzen
 62
    12
420
 14877971
370
     9
100
AcDb2dPolyline
 66
     1
 10
0.0
 20
0.0
 30
0.0
  0
VERTEX
  5
300
330
2FF
100
AcDbEntity
  8
Ritzen
 62
    12
420
 14877971
370
     9
100
AcDbVertex
100
AcDb2dVertex
 10
608.8050440643786
 20
-54.32504321965442
 30
0.0
  0
VERTEX
  5
301
330
2FF
100
AcDbEntity
  8
Ritzen
 62
    12
420
 14877971
370
     9
100
AcDbVertex
100
AcDb2dVertex
 10
598.2782102996492
 20
80.0430039947462
 30
0.0
  0
SEQEND
  5
302
330
2FF
100
AcDbEntity
  8
Ritzen
 62
    12
420
 14877971
370
     9
  0
POLYLINE
  5
303
330
1F
100
AcDbEntity
  8
Ritzen
 62
    12
420
 14877971
370
     9
100
AcDb2dPolyline
 66
     1
 10
0.0
 20
0.0
 30
0.0
  0
VERTEX
  5
304
330
303
100
AcDbEntity
  8
Ritzen
 62
    12
420
 14877971
370
     9
100
AcDbVertex
100
AcDb2dVertex
 10
618.6569253717978
 20
-58.13131390283914
 30
0.0
  0
VERTEX
  5
305
330
303
100
AcDbEntity
  8
Ritzen
 62
    12
420
 14877971
370
     9
100
AcDbVertex
100
AcDb2dVertex
 10
733.4741203029446
 20
12.46418321085965
 30
0.0
  0
SEQEND
  5
306
330
303
100
AcDbEntity
  8
Ritzen
 62
    12
420
 14877971
370
     9
  0
POLYLINE
  5
307
330
1F
100
AcDbEntity
  8
Ritzen
 62
    12
420
 14877971
370
     9
100
AcDb2dPolyline
 66
     1
 10
0.0
 20
0.0
 30
0.0
  0
VERTEX
  5
308
330
307
100
AcDbEntity
  8
Ritzen
 62
    12
420
 14877971
370
     9
100
AcDbVertex
100
AcDb2dVertex
 10
679.7761059934525
 20
61.99675410098302
 30
0.0
  0
VERTEX
  5
309
330
307
100
AcDbEntity
  8
Ritzen
 62
    12
420
 14877971
370
     9
100
AcDbVertex
100
AcDb2dVertex
 10
618.6569253717978
 20
-58.13131390283914
 30
0.0
  0
SEQEND
  5
30A
330
307
100
AcDbEntity
  8
Ritzen
 62
    12
420
 14877971
370
     9
  0
POLYLINE
  5
30B
330
1F
100
AcDbEntity
  8
Ritzen
 62
    12
420
 14877971
370
     9
100
AcDb2dPolyline
 66
     1
 10
0.0
 20
0.0
 30
0.0
  0
VERTEX
  5
30C
330
30B
100
AcDbEntity
  8
Ritzen
 62
    12
420
 14877971
370
     9
100
AcDbVertex
100
AcDb2dVertex
 10
608.1230291613235
 20
76.2367333115618
 30
0.0
  0
VERTEX
  5
30D
330
30B
100
AcDbEntity
  8
Ritzen
 62
    12
420
 14877971
370
     9
100
AcDbVertex
100
AcDb2dVertex
 10
618.6569253717978
 20
-58.13131390283914
 30
0.0
  0
SEQEND
  5
30E
330
30B
100
AcDbEntity
  8
Ritzen
 62
    12
420
 14877971
370
     9
  0
ENDSEC
  0
SECTION
  2
OBJECTS
  0
DICTIONARY
  5
C
330
0
100
AcDbDictionary
281
     1
  3
ACAD_GROUP
350
D
  3
ACAD_LAYOUT
350
1A
  3
ACAD_MATERIAL
350
3B
  3
ACAD_MLEADERSTYLE
350
310
  3
ACAD_MLINESTYLE
350
17
  3
ACAD_PLOTSETTINGS
350
19
  3
ACAD_PLOTSTYLENAME
350
E
  3
ACAD_TABLESTYLE
350
30F
  3
ACAD_VISUALSTYLE
350
2A
  0
SUN
  5
3F
330
29
100
AcDbSun
 90
        1
290
     0
 63
     7
421
 16777215
 40
1.0
291
     1
 91
  2455826
 92
 54000000
292
     0
 70
     2
 71
   256
280
     1
  0
DICTIONARY
  5
D
102
{ACAD_REACTORS
330
C
102
}
330
C
100
AcDbDictionary
281
     1
  0
DICTIONARY
  5
1A
102
{ACAD_REACTORS
330
C
102
}
330
C
100
AcDbDictionary
281
     1
  3
Layout1
350
1E
  3
Layout2
350
26
  3
Model
350
22
  0
DICTIONARY
  5
3B
102
{ACAD_REACTORS
330
C
102
}
330
C
100
AcDbDictionary
281
     1
  3
ByBlock
350
3D
  3
ByLayer
350
3C
  3
Global
350
3E
  0
DICTIONARY
  5
310
102
{ACAD_REACTORS
330
C
102
}
330
C
100
AcDbDictionary
281
     1
  0
DICTIONARY
  5
17
102
{ACAD_REACTORS
330
C
102
}
330
C
100
AcDbDictionary
281
     1
  3
Standard
350
18
  0
DICTIONARY
  5
19
102
{ACAD_REACTORS
330
C
102
}
330
C
100
AcDbDictionary
281
     1
  0
ACDBDICTIONARYWDFLT
  5
E
102
{ACAD_REACTORS
330
C
102
}
330
C
100
AcDbDictionary
281
     1
  3
Normal
350
F
100
AcDbDictionaryWithDefault
340
F
  0
DICTIONARY
  5
30F
102
{ACAD_REACTORS
330
C
102
}
330
C
100
AcDbDictionary
281
     1
  0
DICTIONARY
  5
2A
102
{ACAD_REACTORS
330
C
102
}
330
C
100
AcDbDictionary
281
     1
  3
2dWireframe
350
2F
  3
3D Hidden
350
31
  3
3dWireframe
350
30
  3
Basic
350
32
  3
Brighten
350
36
  3
ColorChange
350
3A
  3
Conceptual
350
34
  3
Dim
350
35
  3
Facepattern
350
39
  3
Flat
350
2B
  3
FlatWithEdges
350
2C
  3
Gouraud
350
2D
  3
GouraudWithEdges
350
2E
  3
Linepattern
350
38
  3
Realistic
350
33
  3
Thicken
350
37
  0
LAYOUT
  5
1E
102
{ACAD_REACTORS
330
1A
102
}
330
1A
100
AcDbPlotSettings
  1

  2
none_device
  4

  6

 40
0.0
 41
0.0
 42
0.0
 43
0.0
 44
0.0
 45
0.0
 46
0.0
 47
0.0
 48
0.0
 49
0.0
140
0.0
141
0.0
142
1.0
143
1.0
 70
   688
 72
     0
 73
     0
 74
     5
  7

 75
    16
 76
     0
 77
     2
 78
   300
147
1.0
148
0.0
149
0.0
100
AcDbLayout
  1
Layout1
 70
     1
 71
     1
 10
0.0
 20
0.0
 11
12.0
 21
9.0
 12
0.0
 22
0.0
 32
0.0
 14
1.000000000000000E+20
 24
1.000000000000000E+20
 34
1.000000000000000E+20
 15
-1.000000000000000E+20
 25
-1.000000000000000E+20
 35
-1.000000000000000E+20
146
0.0
 13
0.0
 23
0.0
 33
0.0
 16
1.0
 26
0.0
 36
0.0
 17
0.0
 27
1.0
 37
0.0
 76
     0
330
1B
  0
LAYOUT
  5
26
102
{ACAD_REACTORS
330
1A
102
}
330
1A
100
AcDbPlotSettings
  1

  2
none_device
  4

  6

 40
0.0
 41
0.0
 42
0.0
 43
0.0
 44
0.0
 45
0.0
 46
0.0
 47
0.0
 48
0.0
 49
0.0
140
0.0
141
0.0
142
1.0
143
1.0
 70
   688
 72
     0
 73
     0
 74
     5
  7

 75
    16
 76
     0
 77
     2
 78
   300
147
1.0
148
0.0
149
0.0
100
AcDbLayout
  1
Layout2
 70
     1
 71
     2
 10
0.0
 20
0.0
 11
0.0
 21
0.0
 12
0.0
 22
0.0
 32
0.0
 14
0.0
 24
0.0
 34
0.0
 15
0.0
 25
0.0
 35
0.0
146
0.0
 13
0.0
 23
0.0
 33
0.0
 16
1.0
 26
0.0
 36
0.0
 17
0.0
 27
1.0
 37
0.0
 76
     0
330
23
  0
LAYOUT
  5
22
102
{ACAD_REACTORS
330
1A
102
}
330
1A
100
AcDbPlotSettings
  1

  2
none_device
  4

  6

 40
0.0
 41
0.0
 42
0.0
 43
0.0
 44
0.0
 45
0.0
 46
0.0
 47
0.0
 48
0.0
 49
0.0
140
0.0
141
0.0
142
1.0
143
1.0
 70
  1712
 72
     0
 73
     0
 74
     0
  7

 75
     0
 76
     0
 77
     2
 78
   300
147
1.0
148
0.0
149
0.0
100
AcDbLayout
  1
Model
 70
     1
 71
     0
 10
0.0
 20
0.0
 11
12.0
 21
9.0
 12
0.0
 22
0.0
 32
0.0
 14
1.000000000000000E+20
 24
1.000000000000000E+20
 34
1.000000000000000E+20
 15
-1.000000000000000E+20
 25
-1.000000000000000E+20
 35
-1.000000000000000E+20
146
0.0
 13
0.0
 23
0.0
 33
0.0
 16
1.0
 26
0.0
 36
0.0
 17
0.0
 27
1.0
 37
0.0
 76
     0
330
1F
331
29
  0
MATERIAL
  5
3D
102
{ACAD_REACTORS
330
3B
102
}
330
3B
100
AcDbMaterial
  1
ByBlock
 72
     1
 94
      127
  0
MATERIAL
  5
3C
102
{ACAD_REACTORS
330
3B
102
}
330
3B
100
AcDbMaterial
  1
ByLayer
 72
     1
 94
      127
  0
MATERIAL
  5
3E
102
{ACAD_REACTORS
330
3B
102
}
330
3B
100
AcDbMaterial
  1
Global
 72
     1
 94
      127
  0
MLINESTYLE
  5
18
102
{ACAD_REACTORS
330
17
102
}
330
17
100
AcDbMlineStyle
  2
Standard
 70
     0
  3

 62
   256
 51
90.0
 52
90.0
 71
     2
 49
0.5
 62
   256
  6
BYLAYER
 49
-0.5
 62
   256
  6
BYLAYER
  0
ACDBPLACEHOLDER
  5
F
102
{ACAD_REACTORS
330
E
102
}
330
E
  0
VISUALSTYLE
  5
2F
102
{ACAD_REACTORS
330
2A
102
}
330
2A
100
AcDbVisualStyle
  2
2dWireframe
 70
     4
177
     2
291
     0
 71
     0
176
     1
 72
     2
176
     1
 73
     0
176
     1
 90
        0
176
     1
 40
-0.6
176
     1
 41
-30.0
176
     1
 62
     5
 63
     7
421
 16777215
176
     1
 74
     1
176
     1
 91
        4
176
     1
 64
     7
176
     1
 65
   257
176
     1
 75
     1
176
     1
175
     1
176
     1
 42
1.0
176
     1
 92
        0
176
     1
 66
   257
176
     1
 43
1.0
176
     1
 76
     1
176
     1
 77
     6
176
     1
 78
     2
176
     1
 67
     7
176
     1
 79
     5
176
     1
170
     0
176
     1
171
     0
176
     1
290
     0
176
     1
 93
        1
176
     1
 44
0.0
176
     1
173
     0
176
     1
  0
VISUALSTYLE
  5
31
102
{ACAD_REACTORS
330
2A
102
}
330
2A
100
AcDbVisualStyle
  2
3D Hidden
 70
     6
177
     2
291
     0
 71
     1
176
     1
 72
     2
176
     1
 73
     2
176
     1
 90
        0
176
     1
 40
-0.6
176
     1
 41
-30.0
176
     1
 62
     5
 63
     7
421
 16777215
176
     1
 74
     2
176
     1
 91
        2
176
     1
 64
     7
176
     1
 65
   257
176
     1
 75
     2
176
     1
175
     1
176
     1
 42
40.0
176
     1
 92
        0
176
     1
 66
   257
176
     1
 43
1.0
176
     1
 76
     1
176
     1
 77
     6
176
     1
 78
     2
176
     1
 67
     7
176
     1
 79
     3
176
     1
170
     0
176
     1
171
     0
176
     1
290
     0
176
     1
 93
        1
176
     1
 44
0.0
176
     1
173
     0
176
     1
  0
VISUALSTYLE
  5
30
102
{ACAD_REACTORS
330
2A
102
}
330
2A
100
AcDbVisualStyle
  2
3dWireframe
 70
     5
177
     2
291
     0
 71
     0
176
     1
 72
     2
176
     1
 73
     0
176
     1
 90
        0
176
     1
 40
-0.6
176
     1
 41
-30.0
176
     1
 62
     5
 63
     7
421
 16777215
176
     1
 74
     1
176
     1
 91
        4
176
     1
 64
     7
176
     1
 65
   257
176
     1
 75
     1
176
     1
175
     1
176
     1
 42
1.0
176
     1
 92
        0
176
     1
 66
   257
176
     1
 43
1.0
176
     1
 76
     1
176
     1
 77
     6
176
     1
 78
     2
176
     1
 67
     7
176
     1
 79
     5
176
     1
170
     0
176
     1
171
     0
176
     1
290
     0
176
     1
 93
        1
176
     1
 44
0.0
176
     1
173
     0
176
     1
  0
VISUALSTYLE
  5
32
102
{ACAD_REACTORS
330
2A
102
}
330
2A
100
AcDbVisualStyle
  2
Basic
 70
     7
177
     2
291
     1
 71
     1
176
     1
 72
     0
176
     1
 73
     1
176
     1
 90
        0
176
     1
 40
-0.6
176
     1
 41
-30.0
176
     1
 62
     5
 63
     7
421
 16777215
176
     1
 74
     0
176
     1
 91
        4
176
     1
 64
     7
176
     1
 65
   257
176
     1
 75
     1
176
     1
175
     1
176
     1
 42
1.0
176
     1
 92
        8
176
     1
 66
     7
176
     1
 43
1.0
176
     1
 76
     1
176
     1
 77
     6
176
     1
 78
     2
176
     1
 67
     7
176
     1
 79
     5
176
     1
170
     0
176
     1
171
     0
176
     1
290
     0
176
     1
 93
        1
176
     1
 44
0.0
176
     1
173
     0
176
     1
  0
VISUALSTYLE
  5
36
102
{ACAD_REACTORS
330
2A
102
}
330
2A
100
AcDbVisualStyle
  2
Brighten
 70
    12
177
     2
291
     1
 71
     2
176
     1
 72
     2
176
     1
 73
     0
176
     1
 90
        0
176
     1
 40
-0.6
176
     1
 41
-30.0
176
     1
 62
     5
 63
     7
421
 16777215
176
     1
 74
     1
176
     1
 91
        4
176
     1
 64
     7
176
     1
 65
   257
176
     1
 75
     1
176
     1
175
     1
176
     1
 42
1.0
176
     1
 92
        8
176
     1
 66
     7
176
     1
 43
1.0
176
     1
 76
     1
176
     1
 77
     6
176
     1
 78
     2
176
     1
 67
     7
176
     1
 79
     5
176
     1
170
     0
176
     1
171
     0
176
     1
290
     0
176
     1
 93
        1
176
     1
 44
50.0
176
     1
173
     0
176
     1
  0
VISUALSTYLE
  5
3A
102
{ACAD_REACTORS
330
2A
102
}
330
2A
100
AcDbVisualStyle
  2
ColorChange
 70
    16
177
     2
291
     1
 71
     2
176
     1
 72
     2
176
     1
 73
     3
176
     1
 90
        0
176
     1
 40
-0.6
176
     1
 41
-30.0
176
     1
 62
     5
 63
     8
421
  8421504
176
     1
 74
     1
176
     1
 91
        4
176
     1
 64
     7
176
     1
 65
   257
176
     1
 75
     1
176
     1
175
     1
176
     1
 42
1.0
176
     1
 92
        8
176
     1
 66
     8
424
  8421504
176
     1
 43
1.0
176
     1
 76
     1
176
     1
 77
     6
176
     1
 78
     2
176
     1
 67
     7
176
     1
 79
     5
176
     1
170
     0
176
     1
171
     0
176
     1
290
     0
176
     1
 93
        1
176
     1
 44
0.0
176
     1
173
     0
176
     1
  0
VISUALSTYLE
  5
34
102
{ACAD_REACTORS
330
2A
102
}
330
2A
100
AcDbVisualStyle
  2
Conceptual
 70
     9
177
     2
291
     0
 71
     3
176
     1
 72
     2
176
     1
 73
     0
176
     1
 90
        0
176
     1
 40
-0.6
176
     1
 41
-30.0
176
     1
 62
     5
 63
     7
421
 16777215
176
     1
 74
     2
176
     1
 91
        2
176
     1
 64
     7
176
     1
 65
   257
176
     1
 75
     1
176
     1
175
     1
176
     1
 42
40.0
176
     1
 92
        8
176
     1
 66
     7
176
     1
 43
1.0
176
     1
 76
     1
176
     1
 77
     6
176
     1
 78
     2
176
     1
 67
     7
176
     1
 79
     3
176
     1
170
     0
176
     1
171
     0
176
     1
290
     0
176
     1
 93
        1
176
     1
 44
0.0
176
     1
173
     0
176
     1
  0
VISUALSTYLE
  5
35
102
{ACAD_REACTORS
330
2A
102
}
330
2A
100
AcDbVisualStyle
  2
Dim
 70
    11
177
     2
291
     1
 71
     2
176
     1
 72
     2
176
     1
 73
     0
176
     1
 90
        0
176
     1
 40
-0.6
176
     1
 41
-30.0
176
     1
 62
     5
 63
     7
421
 16777215
176
     1
 74
     1
176
     1
 91
        4
176
     1
 64
     7
176
     1
 65
   257
176
     1
 75
     1
176
     1
175
     1
176
     1
 42
1.0
176
     1
 92
        8
176
     1
 66
     7
176
     1
 43
1.0
176
     1
 76
     1
176
     1
 77
     6
176
     1
 78
     2
176
     1
 67
     7
176
     1
 79
     5
176
     1
170
     0
176
     1
171
     0
176
     1
290
     0
176
     1
 93
        1
176
     1
 44
-50.0
176
     1
173
     0
176
     1
  0
VISUALSTYLE
  5
39
102
{ACAD_REACTORS
330
2A
102
}
330
2A
100
AcDbVisualStyle
  2
Facepattern
 70
    15
177
     2
291
     1
 71
     2
176
     1
 72
     2
176
     1
 73
     0
176
     1
 90
        0
176
     1
 40
-0.6
176
     1
 41
-30.0
176
     1
 62
     5
 63
     7
421
 16777215
176
     1
 74
     1
176
     1
 91
        4
176
     1
 64
     7
176
     1
 65
   257
176
     1
 75
     1
176
     1
175
     1
176
     1
 42
1.0
176
     1
 92
        8
176
     1
 66
     7
176
     1
 43
1.0
176
     1
 76
     1
176
     1
 77
     6
176
     1
 78
     2
176
     1
 67
     7
176
     1
 79
     5
176
     1
170
     0
176
     1
171
     0
176
     1
290
     0
176
     1
 93
        1
176
     1
 44
0.0
176
     1
173
     0
176
     1
  0
VISUALSTYLE
  5
2B
102
{ACAD_REACTORS
330
2A
102
}
330
2A
100
AcDbVisualStyle
  2
Flat
 70
     0
177
     2
291
     1
 71
     2
176
     1
 72
     1
176
     1
 73
     1
176
     1
 90
        2
176
     1
 40
-0.6
176
     1
 41
30.0
176
     1
 62
     5
 63
     7
421
 16777215
176
     1
 74
     0
176
     1
 91
        4
176
     1
 64
     7
176
     1
 65
   257
176
     1
 75
     1
176
     1
175
     1
176
     1
 42
1.0
176
     1
 92
        8
176
     1
 66
     7
176
     1
 43
1.0
176
     1
 76
     1
176
     1
 77
     6
176
     1
 78
     2
176
     1
 67
     7
176
     1
 79
     5
176
     1
170
     0
176
     1
171
     0
176
     1
290
     0
176
     1
 93
       13
176
     1
 44
0.0
176
     1
173
     0
176
     1
  0
VISUALSTYLE
  5
2C
102
{ACAD_REACTORS
330
2A
102
}
330
2A
100
AcDbVisualStyle
  2
FlatWithEdges
 70
     1
177
     2
291
     1
 71
     2
176
     1
 72
     1
176
     1
 73
     1
176
     1
 90
        2
176
     1
 40
-0.6
176
     1
 41
30.0
176
     1
 62
     5
 63
     7
421
 16777215
176
     1
 74
     1
176
     1
 91
        4
176
     1
 64
     7
176
     1
 65
   257
176
     1
 75
     1
176
     1
175
     1
176
     1
 42
1.0
176
     1
 92
        0
176
     1
 66
   257
176
     1
 43
1.0
176
     1
 76
     1
176
     1
 77
     6
176
     1
 78
     2
176
     1
 67
     7
176
     1
 79
     5
176
     1
170
     0
176
     1
171
     0
176
     1
290
     0
176
     1
 93
       13
176
     1
 44
0.0
176
     1
173
     0
176
     1
  0
VISUALSTYLE
  5
2D
102
{ACAD_REACTORS
330
2A
102
}
330
2A
100
AcDbVisualStyle
  2
Gouraud
 70
     2
177
     2
291
     1
 71
     2
176
     1
 72
     2
176
     1
 73
     1
176
     1
 90
        2
176
     1
 40
-0.6
176
     1
 41
30.0
176
     1
 62
     5
 63
     7
421
 16777215
176
     1
 74
     0
176
     1
 91
        4
176
     1
 64
     7
176
     1
 65
   257
176
     1
 75
     1
176
     1
175
     1
176
     1
 42
1.0
176
     1
 92
        0
176
     1
 66
     7
176
     1
 43
1.0
176
     1
 76
     1
176
     1
 77
     6
176
     1
 78
     2
176
     1
 67
     7
176
     1
 79
     5
176
     1
170
     0
176
     1
171
     0
176
     1
290
     0
176
     1
 93
       13
176
     1
 44
0.0
176
     1
173
     0
176
     1
  0
VISUALSTYLE
  5
2E
102
{ACAD_REACTORS
330
2A
102
}
330
2A
100
AcDbVisualStyle
  2
GouraudWithEdges
 70
     3
177
     2
291
     1
 71
     2
176
     1
 72
     2
176
     1
 73
     1
176
     1
 90
        2
176
     1
 40
-0.6
176
     1
 41
30.0
176
     1
 62
     5
 63
     7
421
 16777215
176
     1
 74
     1
176
     1
 91
        4
176
     1
 64
     7
176
     1
 65
   257
176
     1
 75
     1
176
     1
175
     1
176
     1
 42
1.0
176
     1
 92
        0
176
     1
 66
   257
176
     1
 43
1.0
176
     1
 76
     1
176
     1
 77
     6
176
     1
 78
     2
176
     1
 67
     7
176
     1
 79
     5
176
     1
170
     0
176
     1
171
     0
176
     1
290
     0
176
     1
 93
       13
176
     1
 44
0.0
176
     1
173
     0
176
     1
  0
VISUALSTYLE
  5
38
102
{ACAD_REACTORS
330
2A
102
}
330
2A
100
AcDbVisualStyle
  2
Linepattern
 70
    14
177
     2
291
     1
 71
     2
176
     1
 72
     2
176
     1
 73
     0
176
     1
 90
        0
176
     1
 40
-0.6
176
     1
 41
-30.0
176
     1
 62
     5
 63
     7
421
 16777215
176
     1
 74
     1
176
     1
 91
        4
176
     1
 64
     7
176
     1
 65
   257
176
     1
 75
     7
176
     1
175
     7
176
     1
 42
1.0
176
     1
 92
        8
176
     1
 66
     7
176
     1
 43
1.0
176
     1
 76
     1
176
     1
 77
     6
176
     1
 78
     2
176
     1
 67
     7
176
     1
 79
     5
176
     1
170
     0
176
     1
171
     0
176
     1
290
     0
176
     1
 93
        1
176
     1
 44
0.0
176
     1
173
     0
176
     1
  0
VISUALSTYLE
  5
33
102
{ACAD_REACTORS
330
2A
102
}
330
2A
100
AcDbVisualStyle
  2
Realistic
 70
     8
177
     2
291
     0
 71
     2
176
     1
 72
     2
176
     1
 73
     0
176
     1
 90
        0
176
     1
 40
-0.6
176
     1
 41
-30.0
176
     1
 62
     5
 63
     7
421
 16777215
176
     1
 74
     1
176
     1
 91
        0
176
     1
 64
     7
176
     1
 65
   257
176
     1
 75
     1
176
     1
175
     1
176
     1
 42
1.0
176
     1
 92
        8
176
     1
 66
     8
424
  7895160
176
     1
 43
1.0
176
     1
 76
     1
176
     1
 77
     6
176
     1
 78
     2
176
     1
 67
     7
176
     1
 79
     5
176
     1
170
     0
176
     1
171
     0
176
     1
290
     0
176
     1
 93
       13
176
     1
 44
0.0
176
     1
173
     0
176
     1
  0
VISUALSTYLE
  5
37
102
{ACAD_REACTORS
330
2A
102
}
330
2A
100
AcDbVisualStyle
  2
Thicken
 70
    13
177
     2
291
     1
 71
     2
176
     1
 72
     2
176
     1
 73
     0
176
     1
 90
        0
176
     1
 40
-0.6
176
     1
 41
-30.0
176
     1
 62
     5
 63
     7
421
 16777215
176
     1
 74
     1
176
     1
 91
        4
176
     1
 64
     7
176
     1
 65
   257
176
     1
 75
     1
176
     1
175
     1
176
     1
 42
1.0
176
     1
 92
       12
176
     1
 66
     7
176
     1
 43
1.0
176
     1
 76
     1
176
     1
 77
     6
176
     1
 78
     2
176
     1
 67
     7
176
     1
 79
     5
176
     1
170
     0
176
     1
171
     0
176
     1
290
     0
176
     1
 93
        1
176
     1
 44
0.0
176
     1
173
     0
176
     1
  0
ENDSEC
  0
EOF
